0
SECTION
2
HEADER
9
$INSUNITS
70
4
9
$ACADVER
1
AC1014
9
$HANDSEED
5
FFFF
0
ENDSEC
0
SECTION
2
TABLES
0
TABLE
2
VPORT
5
8
100
AcDbSymbolTable
0
ENDTAB
0
TABLE
2
LTYPE
5
5
100
AcDbSymbolTable
0
LTYPE
5
14
100
AcDbSymbolTableRecord
100
AcDbLinetypeTableRecord
2
BYBLOCK
70
0
0
LTYPE
5
15
100
AcDbSymbolTableRecord
100
AcDbLinetypeTableRecord
2
BYLAYER
70
0
0
ENDTAB
0
TABLE
2
LAYER
5
2
100
AcDbSymbolTable
70
2
0
LAYER
5
50
100
AcDbSymbolTableRecord
100
AcDbLayerTableRecord
2
0
70
0
6
CONTINUOUS
0
ENDTAB
0
TABLE
2
STYLE
5
3
100
AcDbSymbolTable
70
1
0
STYLE
5
11
100
AcDbSymbolTableRecord
100
AcDbTextStyleTableRecord
2
STANDARD
70
0
0
ENDTAB
0
TABLE
2
VIEW
5
6
100
AcDbSymbolTable
70
0
0
ENDTAB
0
TABLE
2
UCS
5
7
100
AcDbSymbolTable
70
0
0
ENDTAB
0
TABLE
2
APPID
5
9
100
AcDbSymbolTable
70
2
0
APPID
5
12
100
AcDbSymbolTableRecord
100
AcDbRegAppTableRecord
2
ACAD
70
0
0
ENDTAB
0
TABLE
2
DIMSTYLE
5
A
100
AcDbSymbolTable
70
1
0
ENDTAB
0
TABLE
2
BLOCK_RECORD
5
1
100
AcDbSymbolTable
70
1
0
BLOCK_RECORD
5
1F
100
AcDbSymbolTableRecord
100
AcDbBlockTableRecord
2
*MODEL_SPACE
0
BLOCK_RECORD
5
1B
100
AcDbSymbolTableRecord
100
AcDbBlockTableRecord
2
*PAPER_SPACE
0
ENDTAB
0
ENDSEC
0
SECTION
2
BLOCKS
0
BLOCK
5
20
100
AcDbEntity
100
AcDbBlockBegin
2
*MODEL_SPACE
0
ENDBLK
5
21
100
AcDbEntity
100
AcDbBlockEnd
0
BLOCK
5
1C
100
AcDbEntity
100
AcDbBlockBegin
2
*PAPER_SPACE
0
ENDBLK
5
1D
100
AcDbEntity
100
AcDbBlockEnd
0
ENDSEC
0
SECTION
2
ENTITIES
0
LWPOLYLINE
5
100
100
AcDbEntity
8
0
100
AcDbPolyline
90
4
70
1
43
0.0
10
0
20
0
10
1220
20
0
10
1220
20
606
10
0
20
606
0
LWPOLYLINE
5
101
100
AcDbEntity
8
0
100
AcDbPolyline
90
4
70
1
43
0.0
10
5
20
5
10
561
20
5
10
561
20
461
10
5
20
461
0
LWPOLYLINE
5
102
100
AcDbEntity
8
0
100
AcDbPolyline
90
4
70
1
43
0.0
10
5
20
466
10
561
20
466
10
561
20
526
10
5
20
526
0
LWPOLYLINE
5
103
100
AcDbEntity
8
0
100
AcDbPolyline
90
4
70
1
43
0.0
10
5
20
591
10
5
20
531
10
561
20
531
10
561
20
591
0
LWPOLYLINE
5
104
100
AcDbEntity
8
0
100
AcDbPolyline
90
4
70
1
43
0.0
10
566
20
5
10
626
20
5
10
626
20
467
10
566
20
467
0
LWPOLYLINE
5
105
100
AcDbEntity
8
0
100
AcDbPolyline
90
4
70
1
43
0.0
10
631
20
467
10
691
20
467
10
691
20
5
10
631
20
5
0
LWPOLYLINE
5
106
100
AcDbEntity
8
0
100
AcDbPolyline
90
4
70
1
43
0.0
10
696
20
461
10
753
20
461
10
753
20
5
10
696
20
5
0
LWPOLYLINE
5
107
100
AcDbEntity
8
0
100
AcDbPolyline
90
4
70
1
43
0.0
10
758
20
5
10
758
20
461
10
815
20
461
10
815
20
5
0
LWPOLYLINE
5
108
100
AcDbEntity
8
0
100
AcDbPolyline
90
4
70
1
43
0.0
10
1116
20
596
10
566
20
596
10
566
20
539
10
1116
20
539
0
LWPOLYLINE
5
109
100
AcDbEntity
8
0
100
AcDbPolyline
90
4
70
1
43
0.0
10
1116
20
534
10
566
20
534
10
566
20
476.99999999999994
10
1116
20
476.99999999999994
0
LINE
5
110
100
AcDbEntity
8
0
100
AcDbLine
10
58.000000000000007
20
461
30
0
11
58.000000000000007
21
5
31
0
0
LINE
5
111
100
AcDbEntity
8
0
100
AcDbLine
10
108
20
461
30
0
11
108
21
5
31
0
0
LINE
5
112
100
AcDbEntity
8
0
100
AcDbLine
10
158
20
461
30
0
11
158
21
5
31
0
0
LINE
5
113
100
AcDbEntity
8
0
100
AcDbLine
10
208
20
461
30
0
11
208
21
5
31
0
0
LINE
5
114
100
AcDbEntity
8
0
100
AcDbLine
10
258
20
461
30
0
11
258
21
5
31
0
0
LINE
5
115
100
AcDbEntity
8
0
100
AcDbLine
10
308
20
461
30
0
11
308
21
5
31
0
0
LINE
5
116
100
AcDbEntity
8
0
100
AcDbLine
10
358
20
461
30
0
11
358
21
5
31
0
0
LINE
5
117
100
AcDbEntity
8
0
100
AcDbLine
10
408
20
461
30
0
11
408
21
5
31
0
0
LINE
5
118
100
AcDbEntity
8
0
100
AcDbLine
10
458
20
461
30
0
11
458
21
5
31
0
0
LINE
5
119
100
AcDbEntity
8
0
100
AcDbLine
10
508
20
461
30
0
11
508
21
5
31
0
0
LINE
5
120
100
AcDbEntity
8
0
100
AcDbLine
10
5
20
408
30
0
11
561
21
408
31
0
0
LINE
5
121
100
AcDbEntity
8
0
100
AcDbLine
10
5
20
358
30
0
11
561
21
358
31
0
0
LINE
5
122
100
AcDbEntity
8
0
100
AcDbLine
10
5
20
308
30
0
11
561
21
308
31
0
0
LINE
5
123
100
AcDbEntity
8
0
100
AcDbLine
10
5
20
258
30
0
11
561
21
258
31
0
0
LINE
5
124
100
AcDbEntity
8
0
100
AcDbLine
10
5
20
207.99999999999997
30
0
11
561
21
207.99999999999997
31
0
0
LINE
5
125
100
AcDbEntity
8
0
100
AcDbLine
10
5
20
157.99999999999997
30
0
11
561
21
157.99999999999997
31
0
0
LINE
5
126
100
AcDbEntity
8
0
100
AcDbLine
10
5
20
107.99999999999997
30
0
11
561
21
107.99999999999997
31
0
0
LINE
5
127
100
AcDbEntity
8
0
100
AcDbLine
10
5
20
57.999999999999972
30
0
11
561
21
57.999999999999972
31
0
0
LWPOLYLINE
5
128
100
AcDbEntity
8
0
100
AcDbPolyline
90
4
70
1
43
0.0
10
56.5
20
447
10
59.5
20
447
10
59.500000000000036
20
444.00000000000006
10
56.5
20
444.00000000000006
0
LWPOLYLINE
5
129
100
AcDbEntity
8
0
100
AcDbPolyline
90
4
70
1
43
0.0
10
22.000000000000036
20
406.5
10
19
20
406.5
10
19
20
409.49999999999994
10
22
20
409.49999999999994
0
LWPOLYLINE
5
130
100
AcDbEntity
8
0
100
AcDbPolyline
90
4
70
1
43
0.0
10
106.5
20
447
10
109.5
20
447
10
109.50000000000003
20
444.00000000000006
10
106.5
20
444.00000000000006
0
LWPOLYLINE
5
131
100
AcDbEntity
8
0
100
AcDbPolyline
90
4
70
1
43
0.0
10
156.5
20
447
10
159.5
20
447
10
159.50000000000003
20
444.00000000000006
10
156.5
20
444.00000000000006
0
LWPOLYLINE
5
132
100
AcDbEntity
8
0
100
AcDbPolyline
90
4
70
1
43
0.0
10
206.5
20
447
10
209.5
20
447
10
209.50000000000003
20
444.00000000000006
10
206.5
20
444.00000000000006
0
LWPOLYLINE
5
133
100
AcDbEntity
8
0
100
AcDbPolyline
90
4
70
1
43
0.0
10
256.5
20
447
10
259.5
20
447
10
259.5
20
444.00000000000006
10
256.5
20
444.00000000000006
0
LWPOLYLINE
5
134
100
AcDbEntity
8
0
100
AcDbPolyline
90
4
70
1
43
0.0
10
306.5
20
447
10
309.5
20
447
10
309.5
20
444.00000000000006
10
306.5
20
444.00000000000006
0
LWPOLYLINE
5
135
100
AcDbEntity
8
0
100
AcDbPolyline
90
4
70
1
43
0.0
10
356.5
20
447
10
359.5
20
447
10
359.5
20
444.00000000000006
10
356.5
20
444.00000000000006
0
LWPOLYLINE
5
136
100
AcDbEntity
8
0
100
AcDbPolyline
90
4
70
1
43
0.0
10
406.5
20
447
10
409.5
20
447
10
409.5
20
444.00000000000006
10
406.5
20
444.00000000000006
0
LWPOLYLINE
5
137
100
AcDbEntity
8
0
100
AcDbPolyline
90
4
70
1
43
0.0
10
456.5
20
447
10
459.5
20
447
10
459.5
20
444.00000000000006
10
456.5
20
444.00000000000006
0
LWPOLYLINE
5
138
100
AcDbEntity
8
0
100
AcDbPolyline
90
4
70
1
43
0.0
10
506.5
20
447
10
509.5
20
447
10
509.5
20
444.00000000000006
10
506.5
20
444.00000000000006
0
LWPOLYLINE
5
139
100
AcDbEntity
8
0
100
AcDbPolyline
90
4
70
1
43
0.0
10
56.5
20
434.5
10
59.5
20
434.5
10
59.500000000000036
20
431.50000000000006
10
56.5
20
431.50000000000006
0
LWPOLYLINE
5
140
100
AcDbEntity
8
0
100
AcDbPolyline
90
4
70
1
43
0.0
10
106.5
20
434.5
10
109.5
20
434.5
10
109.50000000000003
20
431.50000000000006
10
106.5
20
431.50000000000006
0
LWPOLYLINE
5
141
100
AcDbEntity
8
0
100
AcDbPolyline
90
4
70
1
43
0.0
10
156.5
20
434.5
10
159.5
20
434.5
10
159.50000000000003
20
431.50000000000006
10
156.5
20
431.50000000000006
0
LWPOLYLINE
5
142
100
AcDbEntity
8
0
100
AcDbPolyline
90
4
70
1
43
0.0
10
206.5
20
434.5
10
209.5
20
434.5
10
209.50000000000003
20
431.50000000000006
10
206.5
20
431.50000000000006
0
LWPOLYLINE
5
143
100
AcDbEntity
8
0
100
AcDbPolyline
90
4
70
1
43
0.0
10
256.5
20
434.5
10
259.5
20
434.5
10
259.5
20
431.50000000000006
10
256.5
20
431.50000000000006
0
LWPOLYLINE
5
144
100
AcDbEntity
8
0
100
AcDbPolyline
90
4
70
1
43
0.0
10
306.5
20
434.5
10
309.5
20
434.5
10
309.5
20
431.50000000000006
10
306.5
20
431.50000000000006
0
LWPOLYLINE
5
145
100
AcDbEntity
8
0
100
AcDbPolyline
90
4
70
1
43
0.0
10
356.5
20
434.5
10
359.5
20
434.5
10
359.5
20
431.50000000000006
10
356.5
20
431.50000000000006
0
LWPOLYLINE
5
146
100
AcDbEntity
8
0
100
AcDbPolyline
90
4
70
1
43
0.0
10
406.5
20
434.5
10
409.5
20
434.5
10
409.5
20
431.50000000000006
10
406.5
20
431.50000000000006
0
LWPOLYLINE
5
147
100
AcDbEntity
8
0
100
AcDbPolyline
90
4
70
1
43
0.0
10
456.5
20
434.5
10
459.5
20
434.5
10
459.5
20
431.50000000000006
10
456.5
20
431.50000000000006
0
LWPOLYLINE
5
148
100
AcDbEntity
8
0
100
AcDbPolyline
90
4
70
1
43
0.0
10
506.5
20
434.5
10
509.5
20
434.5
10
509.5
20
431.50000000000006
10
506.5
20
431.50000000000006
0
LWPOLYLINE
5
149
100
AcDbEntity
8
0
100
AcDbPolyline
90
4
70
1
43
0.0
10
56.5
20
422
10
59.5
20
422
10
59.500000000000036
20
419.00000000000006
10
56.5
20
419.00000000000006
0
LWPOLYLINE
5
150
100
AcDbEntity
8
0
100
AcDbPolyline
90
4
70
1
43
0.0
10
106.5
20
422
10
109.5
20
422
10
109.50000000000003
20
419.00000000000006
10
106.5
20
419.00000000000006
0
LWPOLYLINE
5
151
100
AcDbEntity
8
0
100
AcDbPolyline
90
4
70
1
43
0.0
10
156.5
20
422
10
159.5
20
422
10
159.50000000000003
20
419.00000000000006
10
156.5
20
419.00000000000006
0
LWPOLYLINE
5
152
100
AcDbEntity
8
0
100
AcDbPolyline
90
4
70
1
43
0.0
10
206.5
20
422
10
209.5
20
422
10
209.50000000000003
20
419.00000000000006
10
206.5
20
419.00000000000006
0
LWPOLYLINE
5
153
100
AcDbEntity
8
0
100
AcDbPolyline
90
4
70
1
43
0.0
10
256.5
20
422
10
259.5
20
422
10
259.5
20
419.00000000000006
10
256.5
20
419.00000000000006
0
LWPOLYLINE
5
154
100
AcDbEntity
8
0
100
AcDbPolyline
90
4
70
1
43
0.0
10
306.5
20
422
10
309.5
20
422
10
309.5
20
419.00000000000006
10
306.5
20
419.00000000000006
0
LWPOLYLINE
5
155
100
AcDbEntity
8
0
100
AcDbPolyline
90
4
70
1
43
0.0
10
356.5
20
422
10
359.5
20
422
10
359.5
20
419.00000000000006
10
356.5
20
419.00000000000006
0
LWPOLYLINE
5
156
100
AcDbEntity
8
0
100
AcDbPolyline
90
4
70
1
43
0.0
10
406.5
20
422
10
409.5
20
422
10
409.5
20
419.00000000000006
10
406.5
20
419.00000000000006
0
LWPOLYLINE
5
157
100
AcDbEntity
8
0
100
AcDbPolyline
90
4
70
1
43
0.0
10
456.5
20
422
10
459.5
20
422
10
459.5
20
419.00000000000006
10
456.5
20
419.00000000000006
0
LWPOLYLINE
5
158
100
AcDbEntity
8
0
100
AcDbPolyline
90
4
70
1
43
0.0
10
506.5
20
422
10
509.5
20
422
10
509.5
20
419.00000000000006
10
506.5
20
419.00000000000006
0
LWPOLYLINE
5
159
100
AcDbEntity
8
0
100
AcDbPolyline
90
4
70
1
43
0.0
10
56.5
20
409.5
10
59.5
20
409.5
10
59.500000000000036
20
406.50000000000006
10
56.5
20
406.50000000000006
0
LWPOLYLINE
5
160
100
AcDbEntity
8
0
100
AcDbPolyline
90
4
70
1
43
0.0
10
106.5
20
409.5
10
109.5
20
409.5
10
109.50000000000003
20
406.50000000000006
10
106.5
20
406.50000000000006
0
LWPOLYLINE
5
161
100
AcDbEntity
8
0
100
AcDbPolyline
90
4
70
1
43
0.0
10
156.5
20
409.5
10
159.5
20
409.5
10
159.50000000000003
20
406.50000000000006
10
156.5
20
406.50000000000006
0
LWPOLYLINE
5
162
100
AcDbEntity
8
0
100
AcDbPolyline
90
4
70
1
43
0.0
10
206.5
20
409.5
10
209.5
20
409.5
10
209.50000000000003
20
406.50000000000006
10
206.5
20
406.50000000000006
0
LWPOLYLINE
5
163
100
AcDbEntity
8
0
100
AcDbPolyline
90
4
70
1
43
0.0
10
256.5
20
409.5
10
259.5
20
409.5
10
259.5
20
406.50000000000006
10
256.5
20
406.50000000000006
0
LWPOLYLINE
5
164
100
AcDbEntity
8
0
100
AcDbPolyline
90
4
70
1
43
0.0
10
306.5
20
409.5
10
309.5
20
409.5
10
309.5
20
406.50000000000006
10
306.5
20
406.50000000000006
0
LWPOLYLINE
5
165
100
AcDbEntity
8
0
100
AcDbPolyline
90
4
70
1
43
0.0
10
356.5
20
409.5
10
359.5
20
409.5
10
359.5
20
406.50000000000006
10
356.5
20
406.50000000000006
0
LWPOLYLINE
5
166
100
AcDbEntity
8
0
100
AcDbPolyline
90
4
70
1
43
0.0
10
406.5
20
409.5
10
409.5
20
409.5
10
409.5
20
406.50000000000006
10
406.5
20
406.50000000000006
0
LWPOLYLINE
5
167
100
AcDbEntity
8
0
100
AcDbPolyline
90
4
70
1
43
0.0
10
456.5
20
409.5
10
459.5
20
409.5
10
459.5
20
406.50000000000006
10
456.5
20
406.50000000000006
0
LWPOLYLINE
5
168
100
AcDbEntity
8
0
100
AcDbPolyline
90
4
70
1
43
0.0
10
506.5
20
409.5
10
509.5
20
409.5
10
509.5
20
406.50000000000006
10
506.5
20
406.50000000000006
0
LWPOLYLINE
5
169
100
AcDbEntity
8
0
100
AcDbPolyline
90
4
70
1
43
0.0
10
56.5
20
397
10
59.5
20
397
10
59.500000000000036
20
394.00000000000006
10
56.5
20
394.00000000000006
0
LWPOLYLINE
5
170
100
AcDbEntity
8
0
100
AcDbPolyline
90
4
70
1
43
0.0
10
106.5
20
397
10
109.5
20
397
10
109.50000000000003
20
394.00000000000006
10
106.5
20
394.00000000000006
0
LWPOLYLINE
5
171
100
AcDbEntity
8
0
100
AcDbPolyline
90
4
70
1
43
0.0
10
156.5
20
397
10
159.5
20
397
10
159.50000000000003
20
394.00000000000006
10
156.5
20
394.00000000000006
0
LWPOLYLINE
5
172
100
AcDbEntity
8
0
100
AcDbPolyline
90
4
70
1
43
0.0
10
206.5
20
397
10
209.5
20
397
10
209.50000000000003
20
394.00000000000006
10
206.5
20
394.00000000000006
0
LWPOLYLINE
5
173
100
AcDbEntity
8
0
100
AcDbPolyline
90
4
70
1
43
0.0
10
256.5
20
397
10
259.5
20
397
10
259.5
20
394.00000000000006
10
256.5
20
394.00000000000006
0
LWPOLYLINE
5
174
100
AcDbEntity
8
0
100
AcDbPolyline
90
4
70
1
43
0.0
10
306.5
20
397
10
309.5
20
397
10
309.5
20
394.00000000000006
10
306.5
20
394.00000000000006
0
LWPOLYLINE
5
175
100
AcDbEntity
8
0
100
AcDbPolyline
90
4
70
1
43
0.0
10
356.5
20
397
10
359.5
20
397
10
359.5
20
394.00000000000006
10
356.5
20
394.00000000000006
0
LWPOLYLINE
5
176
100
AcDbEntity
8
0
100
AcDbPolyline
90
4
70
1
43
0.0
10
406.5
20
397
10
409.5
20
397
10
409.5
20
394.00000000000006
10
406.5
20
394.00000000000006
0
LWPOLYLINE
5
177
100
AcDbEntity
8
0
100
AcDbPolyline
90
4
70
1
43
0.0
10
456.5
20
397
10
459.5
20
397
10
459.5
20
394.00000000000006
10
456.5
20
394.00000000000006
0
LWPOLYLINE
5
178
100
AcDbEntity
8
0
100
AcDbPolyline
90
4
70
1
43
0.0
10
506.5
20
397
10
509.5
20
397
10
509.5
20
394.00000000000006
10
506.5
20
394.00000000000006
0
LWPOLYLINE
5
179
100
AcDbEntity
8
0
100
AcDbPolyline
90
4
70
1
43
0.0
10
56.5
20
384.5
10
59.5
20
384.5
10
59.500000000000036
20
381.50000000000006
10
56.5
20
381.50000000000006
0
LWPOLYLINE
5
180
100
AcDbEntity
8
0
100
AcDbPolyline
90
4
70
1
43
0.0
10
106.5
20
384.5
10
109.5
20
384.5
10
109.50000000000003
20
381.50000000000006
10
106.5
20
381.50000000000006
0
LWPOLYLINE
5
181
100
AcDbEntity
8
0
100
AcDbPolyline
90
4
70
1
43
0.0
10
156.5
20
384.5
10
159.5
20
384.5
10
159.50000000000003
20
381.50000000000006
10
156.5
20
381.50000000000006
0
LWPOLYLINE
5
182
100
AcDbEntity
8
0
100
AcDbPolyline
90
4
70
1
43
0.0
10
206.5
20
384.5
10
209.5
20
384.5
10
209.50000000000003
20
381.50000000000006
10
206.5
20
381.50000000000006
0
LWPOLYLINE
5
183
100
AcDbEntity
8
0
100
AcDbPolyline
90
4
70
1
43
0.0
10
256.5
20
384.5
10
259.5
20
384.5
10
259.5
20
381.50000000000006
10
256.5
20
381.50000000000006
0
LWPOLYLINE
5
184
100
AcDbEntity
8
0
100
AcDbPolyline
90
4
70
1
43
0.0
10
306.5
20
384.5
10
309.5
20
384.5
10
309.5
20
381.50000000000006
10
306.5
20
381.50000000000006
0
LWPOLYLINE
5
185
100
AcDbEntity
8
0
100
AcDbPolyline
90
4
70
1
43
0.0
10
356.5
20
384.5
10
359.5
20
384.5
10
359.5
20
381.50000000000006
10
356.5
20
381.50000000000006
0
LWPOLYLINE
5
186
100
AcDbEntity
8
0
100
AcDbPolyline
90
4
70
1
43
0.0
10
406.5
20
384.5
10
409.5
20
384.5
10
409.5
20
381.50000000000006
10
406.5
20
381.50000000000006
0
LWPOLYLINE
5
187
100
AcDbEntity
8
0
100
AcDbPolyline
90
4
70
1
43
0.0
10
456.5
20
384.5
10
459.5
20
384.5
10
459.5
20
381.50000000000006
10
456.5
20
381.50000000000006
0
LWPOLYLINE
5
188
100
AcDbEntity
8
0
100
AcDbPolyline
90
4
70
1
43
0.0
10
506.5
20
384.5
10
509.5
20
384.5
10
509.5
20
381.50000000000006
10
506.5
20
381.50000000000006
0
LWPOLYLINE
5
189
100
AcDbEntity
8
0
100
AcDbPolyline
90
4
70
1
43
0.0
10
56.5
20
372
10
59.5
20
372
10
59.500000000000036
20
369.00000000000006
10
56.5
20
369.00000000000006
0
LWPOLYLINE
5
190
100
AcDbEntity
8
0
100
AcDbPolyline
90
4
70
1
43
0.0
10
106.5
20
372
10
109.5
20
372
10
109.50000000000003
20
369.00000000000006
10
106.5
20
369.00000000000006
0
LWPOLYLINE
5
191
100
AcDbEntity
8
0
100
AcDbPolyline
90
4
70
1
43
0.0
10
156.5
20
372
10
159.5
20
372
10
159.50000000000003
20
369.00000000000006
10
156.5
20
369.00000000000006
0
LWPOLYLINE
5
192
100
AcDbEntity
8
0
100
AcDbPolyline
90
4
70
1
43
0.0
10
206.5
20
372
10
209.5
20
372
10
209.50000000000003
20
369.00000000000006
10
206.5
20
369.00000000000006
0
LWPOLYLINE
5
193
100
AcDbEntity
8
0
100
AcDbPolyline
90
4
70
1
43
0.0
10
256.5
20
372
10
259.5
20
372
10
259.5
20
369.00000000000006
10
256.5
20
369.00000000000006
0
LWPOLYLINE
5
194
100
AcDbEntity
8
0
100
AcDbPolyline
90
4
70
1
43
0.0
10
306.5
20
372
10
309.5
20
372
10
309.5
20
369.00000000000006
10
306.5
20
369.00000000000006
0
LWPOLYLINE
5
195
100
AcDbEntity
8
0
100
AcDbPolyline
90
4
70
1
43
0.0
10
356.5
20
372
10
359.5
20
372
10
359.5
20
369.00000000000006
10
356.5
20
369.00000000000006
0
LWPOLYLINE
5
196
100
AcDbEntity
8
0
100
AcDbPolyline
90
4
70
1
43
0.0
10
406.5
20
372
10
409.5
20
372
10
409.5
20
369.00000000000006
10
406.5
20
369.00000000000006
0
LWPOLYLINE
5
197
100
AcDbEntity
8
0
100
AcDbPolyline
90
4
70
1
43
0.0
10
456.5
20
372
10
459.5
20
372
10
459.5
20
369.00000000000006
10
456.5
20
369.00000000000006
0
LWPOLYLINE
5
198
100
AcDbEntity
8
0
100
AcDbPolyline
90
4
70
1
43
0.0
10
506.5
20
372
10
509.5
20
372
10
509.5
20
369.00000000000006
10
506.5
20
369.00000000000006
0
LWPOLYLINE
5
199
100
AcDbEntity
8
0
100
AcDbPolyline
90
4
70
1
43
0.0
10
56.5
20
359.5
10
59.5
20
359.5
10
59.500000000000036
20
356.50000000000006
10
56.5
20
356.50000000000006
0
LWPOLYLINE
5
200
100
AcDbEntity
8
0
100
AcDbPolyline
90
4
70
1
43
0.0
10
106.5
20
359.5
10
109.5
20
359.5
10
109.50000000000003
20
356.50000000000006
10
106.5
20
356.50000000000006
0
LWPOLYLINE
5
201
100
AcDbEntity
8
0
100
AcDbPolyline
90
4
70
1
43
0.0
10
156.5
20
359.5
10
159.5
20
359.5
10
159.50000000000003
20
356.50000000000006
10
156.5
20
356.50000000000006
0
LWPOLYLINE
5
202
100
AcDbEntity
8
0
100
AcDbPolyline
90
4
70
1
43
0.0
10
206.5
20
359.5
10
209.5
20
359.5
10
209.50000000000003
20
356.50000000000006
10
206.5
20
356.50000000000006
0
LWPOLYLINE
5
203
100
AcDbEntity
8
0
100
AcDbPolyline
90
4
70
1
43
0.0
10
256.5
20
359.5
10
259.5
20
359.5
10
259.5
20
356.50000000000006
10
256.5
20
356.50000000000006
0
LWPOLYLINE
5
204
100
AcDbEntity
8
0
100
AcDbPolyline
90
4
70
1
43
0.0
10
306.5
20
359.5
10
309.5
20
359.5
10
309.5
20
356.50000000000006
10
306.5
20
356.50000000000006
0
LWPOLYLINE
5
205
100
AcDbEntity
8
0
100
AcDbPolyline
90
4
70
1
43
0.0
10
356.5
20
359.5
10
359.5
20
359.5
10
359.5
20
356.50000000000006
10
356.5
20
356.50000000000006
0
LWPOLYLINE
5
206
100
AcDbEntity
8
0
100
AcDbPolyline
90
4
70
1
43
0.0
10
406.5
20
359.5
10
409.5
20
359.5
10
409.5
20
356.50000000000006
10
406.5
20
356.50000000000006
0
LWPOLYLINE
5
207
100
AcDbEntity
8
0
100
AcDbPolyline
90
4
70
1
43
0.0
10
456.5
20
359.5
10
459.5
20
359.5
10
459.5
20
356.50000000000006
10
456.5
20
356.50000000000006
0
LWPOLYLINE
5
208
100
AcDbEntity
8
0
100
AcDbPolyline
90
4
70
1
43
0.0
10
506.5
20
359.5
10
509.5
20
359.5
10
509.5
20
356.50000000000006
10
506.5
20
356.50000000000006
0
LWPOLYLINE
5
209
100
AcDbEntity
8
0
100
AcDbPolyline
90
4
70
1
43
0.0
10
56.5
20
347
10
59.5
20
347
10
59.500000000000036
20
344.00000000000006
10
56.5
20
344.00000000000006
0
LWPOLYLINE
5
210
100
AcDbEntity
8
0
100
AcDbPolyline
90
4
70
1
43
0.0
10
106.5
20
347
10
109.5
20
347
10
109.50000000000003
20
344.00000000000006
10
106.5
20
344.00000000000006
0
LWPOLYLINE
5
211
100
AcDbEntity
8
0
100
AcDbPolyline
90
4
70
1
43
0.0
10
156.5
20
347
10
159.5
20
347
10
159.50000000000003
20
344.00000000000006
10
156.5
20
344.00000000000006
0
LWPOLYLINE
5
212
100
AcDbEntity
8
0
100
AcDbPolyline
90
4
70
1
43
0.0
10
206.5
20
347
10
209.5
20
347
10
209.50000000000003
20
344.00000000000006
10
206.5
20
344.00000000000006
0
LWPOLYLINE
5
213
100
AcDbEntity
8
0
100
AcDbPolyline
90
4
70
1
43
0.0
10
256.5
20
347
10
259.5
20
347
10
259.5
20
344.00000000000006
10
256.5
20
344.00000000000006
0
LWPOLYLINE
5
214
100
AcDbEntity
8
0
100
AcDbPolyline
90
4
70
1
43
0.0
10
306.5
20
347
10
309.5
20
347
10
309.5
20
344.00000000000006
10
306.5
20
344.00000000000006
0
LWPOLYLINE
5
215
100
AcDbEntity
8
0
100
AcDbPolyline
90
4
70
1
43
0.0
10
356.5
20
347
10
359.5
20
347
10
359.5
20
344.00000000000006
10
356.5
20
344.00000000000006
0
LWPOLYLINE
5
216
100
AcDbEntity
8
0
100
AcDbPolyline
90
4
70
1
43
0.0
10
406.5
20
347
10
409.5
20
347
10
409.5
20
344.00000000000006
10
406.5
20
344.00000000000006
0
LWPOLYLINE
5
217
100
AcDbEntity
8
0
100
AcDbPolyline
90
4
70
1
43
0.0
10
456.5
20
347
10
459.5
20
347
10
459.5
20
344.00000000000006
10
456.5
20
344.00000000000006
0
LWPOLYLINE
5
218
100
AcDbEntity
8
0
100
AcDbPolyline
90
4
70
1
43
0.0
10
506.5
20
347
10
509.5
20
347
10
509.5
20
344.00000000000006
10
506.5
20
344.00000000000006
0
LWPOLYLINE
5
219
100
AcDbEntity
8
0
100
AcDbPolyline
90
4
70
1
43
0.0
10
56.5
20
334.5
10
59.5
20
334.5
10
59.500000000000036
20
331.50000000000006
10
56.5
20
331.50000000000006
0
LWPOLYLINE
5
220
100
AcDbEntity
8
0
100
AcDbPolyline
90
4
70
1
43
0.0
10
106.5
20
334.5
10
109.5
20
334.5
10
109.50000000000003
20
331.50000000000006
10
106.5
20
331.50000000000006
0
LWPOLYLINE
5
221
100
AcDbEntity
8
0
100
AcDbPolyline
90
4
70
1
43
0.0
10
156.5
20
334.5
10
159.5
20
334.5
10
159.50000000000003
20
331.50000000000006
10
156.5
20
331.50000000000006
0
LWPOLYLINE
5
222
100
AcDbEntity
8
0
100
AcDbPolyline
90
4
70
1
43
0.0
10
206.5
20
334.5
10
209.5
20
334.5
10
209.50000000000003
20
331.50000000000006
10
206.5
20
331.50000000000006
0
LWPOLYLINE
5
223
100
AcDbEntity
8
0
100
AcDbPolyline
90
4
70
1
43
0.0
10
256.5
20
334.5
10
259.5
20
334.5
10
259.5
20
331.50000000000006
10
256.5
20
331.50000000000006
0
LWPOLYLINE
5
224
100
AcDbEntity
8
0
100
AcDbPolyline
90
4
70
1
43
0.0
10
306.5
20
334.5
10
309.5
20
334.5
10
309.5
20
331.50000000000006
10
306.5
20
331.50000000000006
0
LWPOLYLINE
5
225
100
AcDbEntity
8
0
100
AcDbPolyline
90
4
70
1
43
0.0
10
356.5
20
334.5
10
359.5
20
334.5
10
359.5
20
331.50000000000006
10
356.5
20
331.50000000000006
0
LWPOLYLINE
5
226
100
AcDbEntity
8
0
100
AcDbPolyline
90
4
70
1
43
0.0
10
406.5
20
334.5
10
409.5
20
334.5
10
409.5
20
331.50000000000006
10
406.5
20
331.50000000000006
0
LWPOLYLINE
5
227
100
AcDbEntity
8
0
100
AcDbPolyline
90
4
70
1
43
0.0
10
456.5
20
334.5
10
459.5
20
334.5
10
459.5
20
331.50000000000006
10
456.5
20
331.50000000000006
0
LWPOLYLINE
5
228
100
AcDbEntity
8
0
100
AcDbPolyline
90
4
70
1
43
0.0
10
506.5
20
334.5
10
509.5
20
334.5
10
509.5
20
331.50000000000006
10
506.5
20
331.50000000000006
0
LWPOLYLINE
5
229
100
AcDbEntity
8
0
100
AcDbPolyline
90
4
70
1
43
0.0
10
56.5
20
322
10
59.5
20
322
10
59.500000000000036
20
319.00000000000006
10
56.5
20
319.00000000000006
0
LWPOLYLINE
5
230
100
AcDbEntity
8
0
100
AcDbPolyline
90
4
70
1
43
0.0
10
106.5
20
322
10
109.5
20
322
10
109.50000000000003
20
319.00000000000006
10
106.5
20
319.00000000000006
0
LWPOLYLINE
5
231
100
AcDbEntity
8
0
100
AcDbPolyline
90
4
70
1
43
0.0
10
156.5
20
322
10
159.5
20
322
10
159.50000000000003
20
319.00000000000006
10
156.5
20
319.00000000000006
0
LWPOLYLINE
5
232
100
AcDbEntity
8
0
100
AcDbPolyline
90
4
70
1
43
0.0
10
206.5
20
322
10
209.5
20
322
10
209.50000000000003
20
319.00000000000006
10
206.5
20
319.00000000000006
0
LWPOLYLINE
5
233
100
AcDbEntity
8
0
100
AcDbPolyline
90
4
70
1
43
0.0
10
256.5
20
322
10
259.5
20
322
10
259.5
20
319.00000000000006
10
256.5
20
319.00000000000006
0
LWPOLYLINE
5
234
100
AcDbEntity
8
0
100
AcDbPolyline
90
4
70
1
43
0.0
10
306.5
20
322
10
309.5
20
322
10
309.5
20
319.00000000000006
10
306.5
20
319.00000000000006
0
LWPOLYLINE
5
235
100
AcDbEntity
8
0
100
AcDbPolyline
90
4
70
1
43
0.0
10
356.5
20
322
10
359.5
20
322
10
359.5
20
319.00000000000006
10
356.5
20
319.00000000000006
0
LWPOLYLINE
5
236
100
AcDbEntity
8
0
100
AcDbPolyline
90
4
70
1
43
0.0
10
406.5
20
322
10
409.5
20
322
10
409.5
20
319.00000000000006
10
406.5
20
319.00000000000006
0
LWPOLYLINE
5
237
100
AcDbEntity
8
0
100
AcDbPolyline
90
4
70
1
43
0.0
10
456.5
20
322
10
459.5
20
322
10
459.5
20
319.00000000000006
10
456.5
20
319.00000000000006
0
LWPOLYLINE
5
238
100
AcDbEntity
8
0
100
AcDbPolyline
90
4
70
1
43
0.0
10
506.5
20
322
10
509.5
20
322
10
509.5
20
319.00000000000006
10
506.5
20
319.00000000000006
0
LWPOLYLINE
5
239
100
AcDbEntity
8
0
100
AcDbPolyline
90
4
70
1
43
0.0
10
56.5
20
309.5
10
59.5
20
309.5
10
59.500000000000036
20
306.50000000000006
10
56.5
20
306.50000000000006
0
LWPOLYLINE
5
240
100
AcDbEntity
8
0
100
AcDbPolyline
90
4
70
1
43
0.0
10
106.5
20
309.5
10
109.5
20
309.5
10
109.50000000000003
20
306.50000000000006
10
106.5
20
306.50000000000006
0
LWPOLYLINE
5
241
100
AcDbEntity
8
0
100
AcDbPolyline
90
4
70
1
43
0.0
10
156.5
20
309.5
10
159.5
20
309.5
10
159.50000000000003
20
306.50000000000006
10
156.5
20
306.50000000000006
0
LWPOLYLINE
5
242
100
AcDbEntity
8
0
100
AcDbPolyline
90
4
70
1
43
0.0
10
206.5
20
309.5
10
209.5
20
309.5
10
209.50000000000003
20
306.50000000000006
10
206.5
20
306.50000000000006
0
LWPOLYLINE
5
243
100
AcDbEntity
8
0
100
AcDbPolyline
90
4
70
1
43
0.0
10
256.5
20
309.5
10
259.5
20
309.5
10
259.5
20
306.50000000000006
10
256.5
20
306.50000000000006
0
LWPOLYLINE
5
244
100
AcDbEntity
8
0
100
AcDbPolyline
90
4
70
1
43
0.0
10
306.5
20
309.5
10
309.5
20
309.5
10
309.5
20
306.50000000000006
10
306.5
20
306.50000000000006
0
LWPOLYLINE
5
245
100
AcDbEntity
8
0
100
AcDbPolyline
90
4
70
1
43
0.0
10
356.5
20
309.5
10
359.5
20
309.5
10
359.5
20
306.50000000000006
10
356.5
20
306.50000000000006
0
LWPOLYLINE
5
246
100
AcDbEntity
8
0
100
AcDbPolyline
90
4
70
1
43
0.0
10
406.5
20
309.5
10
409.5
20
309.5
10
409.5
20
306.50000000000006
10
406.5
20
306.50000000000006
0
LWPOLYLINE
5
247
100
AcDbEntity
8
0
100
AcDbPolyline
90
4
70
1
43
0.0
10
456.5
20
309.5
10
459.5
20
309.5
10
459.5
20
306.50000000000006
10
456.5
20
306.50000000000006
0
LWPOLYLINE
5
248
100
AcDbEntity
8
0
100
AcDbPolyline
90
4
70
1
43
0.0
10
506.5
20
309.5
10
509.5
20
309.5
10
509.5
20
306.50000000000006
10
506.5
20
306.50000000000006
0
LWPOLYLINE
5
249
100
AcDbEntity
8
0
100
AcDbPolyline
90
4
70
1
43
0.0
10
56.5
20
297
10
59.5
20
297
10
59.500000000000036
20
294.00000000000006
10
56.5
20
294.00000000000006
0
LWPOLYLINE
5
250
100
AcDbEntity
8
0
100
AcDbPolyline
90
4
70
1
43
0.0
10
106.5
20
297
10
109.5
20
297
10
109.50000000000003
20
294.00000000000006
10
106.5
20
294.00000000000006
0
LWPOLYLINE
5
251
100
AcDbEntity
8
0
100
AcDbPolyline
90
4
70
1
43
0.0
10
156.5
20
297
10
159.5
20
297
10
159.50000000000003
20
294.00000000000006
10
156.5
20
294.00000000000006
0
LWPOLYLINE
5
252
100
AcDbEntity
8
0
100
AcDbPolyline
90
4
70
1
43
0.0
10
206.5
20
297
10
209.5
20
297
10
209.50000000000003
20
294.00000000000006
10
206.5
20
294.00000000000006
0
LWPOLYLINE
5
253
100
AcDbEntity
8
0
100
AcDbPolyline
90
4
70
1
43
0.0
10
256.5
20
297
10
259.5
20
297
10
259.5
20
294.00000000000006
10
256.5
20
294.00000000000006
0
LWPOLYLINE
5
254
100
AcDbEntity
8
0
100
AcDbPolyline
90
4
70
1
43
0.0
10
306.5
20
297
10
309.5
20
297
10
309.5
20
294.00000000000006
10
306.5
20
294.00000000000006
0
LWPOLYLINE
5
255
100
AcDbEntity
8
0
100
AcDbPolyline
90
4
70
1
43
0.0
10
356.5
20
297
10
359.5
20
297
10
359.5
20
294.00000000000006
10
356.5
20
294.00000000000006
0
LWPOLYLINE
5
256
100
AcDbEntity
8
0
100
AcDbPolyline
90
4
70
1
43
0.0
10
406.5
20
297
10
409.5
20
297
10
409.5
20
294.00000000000006
10
406.5
20
294.00000000000006
0
LWPOLYLINE
5
257
100
AcDbEntity
8
0
100
AcDbPolyline
90
4
70
1
43
0.0
10
456.5
20
297
10
459.5
20
297
10
459.5
20
294.00000000000006
10
456.5
20
294.00000000000006
0
LWPOLYLINE
5
258
100
AcDbEntity
8
0
100
AcDbPolyline
90
4
70
1
43
0.0
10
506.5
20
297
10
509.5
20
297
10
509.5
20
294.00000000000006
10
506.5
20
294.00000000000006
0
LWPOLYLINE
5
259
100
AcDbEntity
8
0
100
AcDbPolyline
90
4
70
1
43
0.0
10
56.5
20
284.5
10
59.5
20
284.5
10
59.500000000000036
20
281.50000000000006
10
56.5
20
281.50000000000006
0
LWPOLYLINE
5
260
100
AcDbEntity
8
0
100
AcDbPolyline
90
4
70
1
43
0.0
10
106.5
20
284.5
10
109.5
20
284.5
10
109.50000000000003
20
281.50000000000006
10
106.5
20
281.50000000000006
0
LWPOLYLINE
5
261
100
AcDbEntity
8
0
100
AcDbPolyline
90
4
70
1
43
0.0
10
156.5
20
284.5
10
159.5
20
284.5
10
159.50000000000003
20
281.50000000000006
10
156.5
20
281.50000000000006
0
LWPOLYLINE
5
262
100
AcDbEntity
8
0
100
AcDbPolyline
90
4
70
1
43
0.0
10
206.5
20
284.5
10
209.5
20
284.5
10
209.50000000000003
20
281.50000000000006
10
206.5
20
281.50000000000006
0
LWPOLYLINE
5
263
100
AcDbEntity
8
0
100
AcDbPolyline
90
4
70
1
43
0.0
10
256.5
20
284.5
10
259.5
20
284.5
10
259.5
20
281.50000000000006
10
256.5
20
281.50000000000006
0
LWPOLYLINE
5
264
100
AcDbEntity
8
0
100
AcDbPolyline
90
4
70
1
43
0.0
10
306.5
20
284.5
10
309.5
20
284.5
10
309.5
20
281.50000000000006
10
306.5
20
281.50000000000006
0
LWPOLYLINE
5
265
100
AcDbEntity
8
0
100
AcDbPolyline
90
4
70
1
43
0.0
10
356.5
20
284.5
10
359.5
20
284.5
10
359.5
20
281.50000000000006
10
356.5
20
281.50000000000006
0
LWPOLYLINE
5
266
100
AcDbEntity
8
0
100
AcDbPolyline
90
4
70
1
43
0.0
10
406.5
20
284.5
10
409.5
20
284.5
10
409.5
20
281.50000000000006
10
406.5
20
281.50000000000006
0
LWPOLYLINE
5
267
100
AcDbEntity
8
0
100
AcDbPolyline
90
4
70
1
43
0.0
10
456.5
20
284.5
10
459.5
20
284.5
10
459.5
20
281.50000000000006
10
456.5
20
281.50000000000006
0
LWPOLYLINE
5
268
100
AcDbEntity
8
0
100
AcDbPolyline
90
4
70
1
43
0.0
10
506.5
20
284.5
10
509.5
20
284.5
10
509.5
20
281.50000000000006
10
506.5
20
281.50000000000006
0
LWPOLYLINE
5
269
100
AcDbEntity
8
0
100
AcDbPolyline
90
4
70
1
43
0.0
10
56.5
20
272
10
59.5
20
272
10
59.500000000000036
20
269.00000000000006
10
56.5
20
269.00000000000006
0
LWPOLYLINE
5
270
100
AcDbEntity
8
0
100
AcDbPolyline
90
4
70
1
43
0.0
10
106.5
20
272
10
109.5
20
272
10
109.50000000000003
20
269.00000000000006
10
106.5
20
269.00000000000006
0
LWPOLYLINE
5
271
100
AcDbEntity
8
0
100
AcDbPolyline
90
4
70
1
43
0.0
10
156.5
20
272
10
159.5
20
272
10
159.50000000000003
20
269.00000000000006
10
156.5
20
269.00000000000006
0
LWPOLYLINE
5
272
100
AcDbEntity
8
0
100
AcDbPolyline
90
4
70
1
43
0.0
10
206.5
20
272
10
209.5
20
272
10
209.50000000000003
20
269.00000000000006
10
206.5
20
269.00000000000006
0
LWPOLYLINE
5
273
100
AcDbEntity
8
0
100
AcDbPolyline
90
4
70
1
43
0.0
10
256.5
20
272
10
259.5
20
272
10
259.5
20
269.00000000000006
10
256.5
20
269.00000000000006
0
LWPOLYLINE
5
274
100
AcDbEntity
8
0
100
AcDbPolyline
90
4
70
1
43
0.0
10
306.5
20
272
10
309.5
20
272
10
309.5
20
269.00000000000006
10
306.5
20
269.00000000000006
0
LWPOLYLINE
5
275
100
AcDbEntity
8
0
100
AcDbPolyline
90
4
70
1
43
0.0
10
356.5
20
272
10
359.5
20
272
10
359.5
20
269.00000000000006
10
356.5
20
269.00000000000006
0
LWPOLYLINE
5
276
100
AcDbEntity
8
0
100
AcDbPolyline
90
4
70
1
43
0.0
10
406.5
20
272
10
409.5
20
272
10
409.5
20
269.00000000000006
10
406.5
20
269.00000000000006
0
LWPOLYLINE
5
277
100
AcDbEntity
8
0
100
AcDbPolyline
90
4
70
1
43
0.0
10
456.5
20
272
10
459.5
20
272
10
459.5
20
269.00000000000006
10
456.5
20
269.00000000000006
0
LWPOLYLINE
5
278
100
AcDbEntity
8
0
100
AcDbPolyline
90
4
70
1
43
0.0
10
506.5
20
272
10
509.5
20
272
10
509.5
20
269.00000000000006
10
506.5
20
269.00000000000006
0
LWPOLYLINE
5
279
100
AcDbEntity
8
0
100
AcDbPolyline
90
4
70
1
43
0.0
10
56.5
20
259.5
10
59.5
20
259.5
10
59.500000000000036
20
256.50000000000006
10
56.5
20
256.50000000000006
0
LWPOLYLINE
5
280
100
AcDbEntity
8
0
100
AcDbPolyline
90
4
70
1
43
0.0
10
106.5
20
259.5
10
109.5
20
259.5
10
109.50000000000003
20
256.50000000000006
10
106.5
20
256.50000000000006
0
LWPOLYLINE
5
281
100
AcDbEntity
8
0
100
AcDbPolyline
90
4
70
1
43
0.0
10
156.5
20
259.5
10
159.5
20
259.5
10
159.50000000000003
20
256.50000000000006
10
156.5
20
256.50000000000006
0
LWPOLYLINE
5
282
100
AcDbEntity
8
0
100
AcDbPolyline
90
4
70
1
43
0.0
10
206.5
20
259.5
10
209.5
20
259.5
10
209.50000000000003
20
256.50000000000006
10
206.5
20
256.50000000000006
0
LWPOLYLINE
5
283
100
AcDbEntity
8
0
100
AcDbPolyline
90
4
70
1
43
0.0
10
256.5
20
259.5
10
259.5
20
259.5
10
259.5
20
256.50000000000006
10
256.5
20
256.50000000000006
0
LWPOLYLINE
5
284
100
AcDbEntity
8
0
100
AcDbPolyline
90
4
70
1
43
0.0
10
306.5
20
259.5
10
309.5
20
259.5
10
309.5
20
256.50000000000006
10
306.5
20
256.50000000000006
0
LWPOLYLINE
5
285
100
AcDbEntity
8
0
100
AcDbPolyline
90
4
70
1
43
0.0
10
356.5
20
259.5
10
359.5
20
259.5
10
359.5
20
256.50000000000006
10
356.5
20
256.50000000000006
0
LWPOLYLINE
5
286
100
AcDbEntity
8
0
100
AcDbPolyline
90
4
70
1
43
0.0
10
406.5
20
259.5
10
409.5
20
259.5
10
409.5
20
256.50000000000006
10
406.5
20
256.50000000000006
0
LWPOLYLINE
5
287
100
AcDbEntity
8
0
100
AcDbPolyline
90
4
70
1
43
0.0
10
456.5
20
259.5
10
459.5
20
259.5
10
459.5
20
256.50000000000006
10
456.5
20
256.50000000000006
0
LWPOLYLINE
5
288
100
AcDbEntity
8
0
100
AcDbPolyline
90
4
70
1
43
0.0
10
506.5
20
259.5
10
509.5
20
259.5
10
509.5
20
256.50000000000006
10
506.5
20
256.50000000000006
0
LWPOLYLINE
5
289
100
AcDbEntity
8
0
100
AcDbPolyline
90
4
70
1
43
0.0
10
56.5
20
247.00000000000003
10
59.5
20
247.00000000000003
10
59.500000000000036
20
244.00000000000006
10
56.5
20
244.00000000000006
0
LWPOLYLINE
5
290
100
AcDbEntity
8
0
100
AcDbPolyline
90
4
70
1
43
0.0
10
106.5
20
247.00000000000003
10
109.5
20
247.00000000000003
10
109.50000000000003
20
244.00000000000006
10
106.5
20
244.00000000000006
0
LWPOLYLINE
5
291
100
AcDbEntity
8
0
100
AcDbPolyline
90
4
70
1
43
0.0
10
156.5
20
247.00000000000003
10
159.5
20
247.00000000000003
10
159.50000000000003
20
244.00000000000006
10
156.5
20
244.00000000000006
0
LWPOLYLINE
5
292
100
AcDbEntity
8
0
100
AcDbPolyline
90
4
70
1
43
0.0
10
206.5
20
247.00000000000003
10
209.5
20
247.00000000000003
10
209.50000000000003
20
244.00000000000006
10
206.5
20
244.00000000000006
0
LWPOLYLINE
5
293
100
AcDbEntity
8
0
100
AcDbPolyline
90
4
70
1
43
0.0
10
256.5
20
247.00000000000003
10
259.5
20
247.00000000000003
10
259.5
20
244.00000000000006
10
256.5
20
244.00000000000006
0
LWPOLYLINE
5
294
100
AcDbEntity
8
0
100
AcDbPolyline
90
4
70
1
43
0.0
10
306.5
20
247.00000000000003
10
309.5
20
247.00000000000003
10
309.5
20
244.00000000000006
10
306.5
20
244.00000000000006
0
LWPOLYLINE
5
295
100
AcDbEntity
8
0
100
AcDbPolyline
90
4
70
1
43
0.0
10
356.5
20
247.00000000000003
10
359.5
20
247.00000000000003
10
359.5
20
244.00000000000006
10
356.5
20
244.00000000000006
0
LWPOLYLINE
5
296
100
AcDbEntity
8
0
100
AcDbPolyline
90
4
70
1
43
0.0
10
406.5
20
247.00000000000003
10
409.5
20
247.00000000000003
10
409.5
20
244.00000000000006
10
406.5
20
244.00000000000006
0
LWPOLYLINE
5
297
100
AcDbEntity
8
0
100
AcDbPolyline
90
4
70
1
43
0.0
10
456.5
20
247.00000000000003
10
459.5
20
247.00000000000003
10
459.5
20
244.00000000000006
10
456.5
20
244.00000000000006
0
LWPOLYLINE
5
298
100
AcDbEntity
8
0
100
AcDbPolyline
90
4
70
1
43
0.0
10
506.5
20
247.00000000000003
10
509.5
20
247.00000000000003
10
509.5
20
244.00000000000006
10
506.5
20
244.00000000000006
0
LWPOLYLINE
5
299
100
AcDbEntity
8
0
100
AcDbPolyline
90
4
70
1
43
0.0
10
56.5
20
234.50000000000003
10
59.5
20
234.50000000000003
10
59.500000000000036
20
231.50000000000006
10
56.5
20
231.50000000000006
0
LWPOLYLINE
5
300
100
AcDbEntity
8
0
100
AcDbPolyline
90
4
70
1
43
0.0
10
106.5
20
234.50000000000003
10
109.5
20
234.50000000000003
10
109.50000000000003
20
231.50000000000006
10
106.5
20
231.50000000000006
0
LWPOLYLINE
5
301
100
AcDbEntity
8
0
100
AcDbPolyline
90
4
70
1
43
0.0
10
156.5
20
234.50000000000003
10
159.5
20
234.50000000000003
10
159.50000000000003
20
231.50000000000006
10
156.5
20
231.50000000000006
0
LWPOLYLINE
5
302
100
AcDbEntity
8
0
100
AcDbPolyline
90
4
70
1
43
0.0
10
206.5
20
234.50000000000003
10
209.5
20
234.50000000000003
10
209.50000000000003
20
231.50000000000006
10
206.5
20
231.50000000000006
0
LWPOLYLINE
5
303
100
AcDbEntity
8
0
100
AcDbPolyline
90
4
70
1
43
0.0
10
256.5
20
234.50000000000003
10
259.5
20
234.50000000000003
10
259.5
20
231.50000000000006
10
256.5
20
231.50000000000006
0
LWPOLYLINE
5
304
100
AcDbEntity
8
0
100
AcDbPolyline
90
4
70
1
43
0.0
10
306.5
20
234.50000000000003
10
309.5
20
234.50000000000003
10
309.5
20
231.50000000000006
10
306.5
20
231.50000000000006
0
LWPOLYLINE
5
305
100
AcDbEntity
8
0
100
AcDbPolyline
90
4
70
1
43
0.0
10
356.5
20
234.50000000000003
10
359.5
20
234.50000000000003
10
359.5
20
231.50000000000006
10
356.5
20
231.50000000000006
0
LWPOLYLINE
5
306
100
AcDbEntity
8
0
100
AcDbPolyline
90
4
70
1
43
0.0
10
406.5
20
234.50000000000003
10
409.5
20
234.50000000000003
10
409.5
20
231.50000000000006
10
406.5
20
231.50000000000006
0
LWPOLYLINE
5
307
100
AcDbEntity
8
0
100
AcDbPolyline
90
4
70
1
43
0.0
10
456.5
20
234.50000000000003
10
459.5
20
234.50000000000003
10
459.5
20
231.50000000000006
10
456.5
20
231.50000000000006
0
LWPOLYLINE
5
308
100
AcDbEntity
8
0
100
AcDbPolyline
90
4
70
1
43
0.0
10
506.5
20
234.50000000000003
10
509.5
20
234.50000000000003
10
509.5
20
231.50000000000006
10
506.5
20
231.50000000000006
0
LWPOLYLINE
5
309
100
AcDbEntity
8
0
100
AcDbPolyline
90
4
70
1
43
0.0
10
56.5
20
222.00000000000003
10
59.5
20
222.00000000000003
10
59.500000000000036
20
219.00000000000006
10
56.5
20
219.00000000000006
0
LWPOLYLINE
5
310
100
AcDbEntity
8
0
100
AcDbPolyline
90
4
70
1
43
0.0
10
106.5
20
222.00000000000003
10
109.5
20
222.00000000000003
10
109.50000000000003
20
219.00000000000006
10
106.5
20
219.00000000000006
0
LWPOLYLINE
5
311
100
AcDbEntity
8
0
100
AcDbPolyline
90
4
70
1
43
0.0
10
156.5
20
222.00000000000003
10
159.5
20
222.00000000000003
10
159.50000000000003
20
219.00000000000006
10
156.5
20
219.00000000000006
0
LWPOLYLINE
5
312
100
AcDbEntity
8
0
100
AcDbPolyline
90
4
70
1
43
0.0
10
206.5
20
222.00000000000003
10
209.5
20
222.00000000000003
10
209.50000000000003
20
219.00000000000006
10
206.5
20
219.00000000000006
0
LWPOLYLINE
5
313
100
AcDbEntity
8
0
100
AcDbPolyline
90
4
70
1
43
0.0
10
256.5
20
222.00000000000003
10
259.5
20
222.00000000000003
10
259.5
20
219.00000000000006
10
256.5
20
219.00000000000006
0
LWPOLYLINE
5
314
100
AcDbEntity
8
0
100
AcDbPolyline
90
4
70
1
43
0.0
10
306.5
20
222.00000000000003
10
309.5
20
222.00000000000003
10
309.5
20
219.00000000000006
10
306.5
20
219.00000000000006
0
LWPOLYLINE
5
315
100
AcDbEntity
8
0
100
AcDbPolyline
90
4
70
1
43
0.0
10
356.5
20
222.00000000000003
10
359.5
20
222.00000000000003
10
359.5
20
219.00000000000006
10
356.5
20
219.00000000000006
0
LWPOLYLINE
5
316
100
AcDbEntity
8
0
100
AcDbPolyline
90
4
70
1
43
0.0
10
406.5
20
222.00000000000003
10
409.5
20
222.00000000000003
10
409.5
20
219.00000000000006
10
406.5
20
219.00000000000006
0
LWPOLYLINE
5
317
100
AcDbEntity
8
0
100
AcDbPolyline
90
4
70
1
43
0.0
10
456.5
20
222.00000000000003
10
459.5
20
222.00000000000003
10
459.5
20
219.00000000000006
10
456.5
20
219.00000000000006
0
LWPOLYLINE
5
318
100
AcDbEntity
8
0
100
AcDbPolyline
90
4
70
1
43
0.0
10
506.5
20
222.00000000000003
10
509.5
20
222.00000000000003
10
509.5
20
219.00000000000006
10
506.5
20
219.00000000000006
0
LWPOLYLINE
5
319
100
AcDbEntity
8
0
100
AcDbPolyline
90
4
70
1
43
0.0
10
56.5
20
209.50000000000003
10
59.5
20
209.50000000000003
10
59.500000000000036
20
206.50000000000006
10
56.5
20
206.50000000000006
0
LWPOLYLINE
5
320
100
AcDbEntity
8
0
100
AcDbPolyline
90
4
70
1
43
0.0
10
106.5
20
209.50000000000003
10
109.5
20
209.50000000000003
10
109.50000000000003
20
206.50000000000006
10
106.5
20
206.50000000000006
0
LWPOLYLINE
5
321
100
AcDbEntity
8
0
100
AcDbPolyline
90
4
70
1
43
0.0
10
156.5
20
209.50000000000003
10
159.5
20
209.50000000000003
10
159.50000000000003
20
206.50000000000006
10
156.5
20
206.50000000000006
0
LWPOLYLINE
5
322
100
AcDbEntity
8
0
100
AcDbPolyline
90
4
70
1
43
0.0
10
206.5
20
209.50000000000003
10
209.5
20
209.50000000000003
10
209.50000000000003
20
206.50000000000006
10
206.5
20
206.50000000000006
0
LWPOLYLINE
5
323
100
AcDbEntity
8
0
100
AcDbPolyline
90
4
70
1
43
0.0
10
256.5
20
209.50000000000003
10
259.5
20
209.50000000000003
10
259.5
20
206.50000000000006
10
256.5
20
206.50000000000006
0
LWPOLYLINE
5
324
100
AcDbEntity
8
0
100
AcDbPolyline
90
4
70
1
43
0.0
10
306.5
20
209.50000000000003
10
309.5
20
209.50000000000003
10
309.5
20
206.50000000000006
10
306.5
20
206.50000000000006
0
LWPOLYLINE
5
325
100
AcDbEntity
8
0
100
AcDbPolyline
90
4
70
1
43
0.0
10
356.5
20
209.50000000000003
10
359.5
20
209.50000000000003
10
359.5
20
206.50000000000006
10
356.5
20
206.50000000000006
0
LWPOLYLINE
5
326
100
AcDbEntity
8
0
100
AcDbPolyline
90
4
70
1
43
0.0
10
406.5
20
209.50000000000003
10
409.5
20
209.50000000000003
10
409.5
20
206.50000000000006
10
406.5
20
206.50000000000006
0
LWPOLYLINE
5
327
100
AcDbEntity
8
0
100
AcDbPolyline
90
4
70
1
43
0.0
10
456.5
20
209.50000000000003
10
459.5
20
209.50000000000003
10
459.5
20
206.50000000000006
10
456.5
20
206.50000000000006
0
LWPOLYLINE
5
328
100
AcDbEntity
8
0
100
AcDbPolyline
90
4
70
1
43
0.0
10
506.5
20
209.50000000000003
10
509.5
20
209.50000000000003
10
509.5
20
206.50000000000006
10
506.5
20
206.50000000000006
0
LWPOLYLINE
5
329
100
AcDbEntity
8
0
100
AcDbPolyline
90
4
70
1
43
0.0
10
56.5
20
197.00000000000003
10
59.5
20
197.00000000000003
10
59.500000000000036
20
194.00000000000006
10
56.5
20
194.00000000000006
0
LWPOLYLINE
5
330
100
AcDbEntity
8
0
100
AcDbPolyline
90
4
70
1
43
0.0
10
106.5
20
197.00000000000003
10
109.5
20
197.00000000000003
10
109.50000000000003
20
194.00000000000006
10
106.5
20
194.00000000000006
0
LWPOLYLINE
5
331
100
AcDbEntity
8
0
100
AcDbPolyline
90
4
70
1
43
0.0
10
156.5
20
197.00000000000003
10
159.5
20
197.00000000000003
10
159.50000000000003
20
194.00000000000006
10
156.5
20
194.00000000000006
0
LWPOLYLINE
5
332
100
AcDbEntity
8
0
100
AcDbPolyline
90
4
70
1
43
0.0
10
206.5
20
197.00000000000003
10
209.5
20
197.00000000000003
10
209.50000000000003
20
194.00000000000006
10
206.5
20
194.00000000000006
0
LWPOLYLINE
5
333
100
AcDbEntity
8
0
100
AcDbPolyline
90
4
70
1
43
0.0
10
256.5
20
197.00000000000003
10
259.5
20
197.00000000000003
10
259.5
20
194.00000000000006
10
256.5
20
194.00000000000006
0
LWPOLYLINE
5
334
100
AcDbEntity
8
0
100
AcDbPolyline
90
4
70
1
43
0.0
10
306.5
20
197.00000000000003
10
309.5
20
197.00000000000003
10
309.5
20
194.00000000000006
10
306.5
20
194.00000000000006
0
LWPOLYLINE
5
335
100
AcDbEntity
8
0
100
AcDbPolyline
90
4
70
1
43
0.0
10
356.5
20
197.00000000000003
10
359.5
20
197.00000000000003
10
359.5
20
194.00000000000006
10
356.5
20
194.00000000000006
0
LWPOLYLINE
5
336
100
AcDbEntity
8
0
100
AcDbPolyline
90
4
70
1
43
0.0
10
406.5
20
197.00000000000003
10
409.5
20
197.00000000000003
10
409.5
20
194.00000000000006
10
406.5
20
194.00000000000006
0
LWPOLYLINE
5
337
100
AcDbEntity
8
0
100
AcDbPolyline
90
4
70
1
43
0.0
10
456.5
20
197.00000000000003
10
459.5
20
197.00000000000003
10
459.5
20
194.00000000000006
10
456.5
20
194.00000000000006
0
LWPOLYLINE
5
338
100
AcDbEntity
8
0
100
AcDbPolyline
90
4
70
1
43
0.0
10
506.5
20
197.00000000000003
10
509.5
20
197.00000000000003
10
509.5
20
194.00000000000006
10
506.5
20
194.00000000000006
0
LWPOLYLINE
5
339
100
AcDbEntity
8
0
100
AcDbPolyline
90
4
70
1
43
0.0
10
56.5
20
184.50000000000003
10
59.5
20
184.50000000000003
10
59.500000000000036
20
181.50000000000006
10
56.5
20
181.50000000000006
0
LWPOLYLINE
5
340
100
AcDbEntity
8
0
100
AcDbPolyline
90
4
70
1
43
0.0
10
106.5
20
184.50000000000003
10
109.5
20
184.50000000000003
10
109.50000000000003
20
181.50000000000006
10
106.5
20
181.50000000000006
0
LWPOLYLINE
5
341
100
AcDbEntity
8
0
100
AcDbPolyline
90
4
70
1
43
0.0
10
156.5
20
184.50000000000003
10
159.5
20
184.50000000000003
10
159.50000000000003
20
181.50000000000006
10
156.5
20
181.50000000000006
0
LWPOLYLINE
5
342
100
AcDbEntity
8
0
100
AcDbPolyline
90
4
70
1
43
0.0
10
206.5
20
184.50000000000003
10
209.5
20
184.50000000000003
10
209.50000000000003
20
181.50000000000006
10
206.5
20
181.50000000000006
0
LWPOLYLINE
5
343
100
AcDbEntity
8
0
100
AcDbPolyline
90
4
70
1
43
0.0
10
256.5
20
184.50000000000003
10
259.5
20
184.50000000000003
10
259.5
20
181.50000000000006
10
256.5
20
181.50000000000006
0
LWPOLYLINE
5
344
100
AcDbEntity
8
0
100
AcDbPolyline
90
4
70
1
43
0.0
10
306.5
20
184.50000000000003
10
309.5
20
184.50000000000003
10
309.5
20
181.50000000000006
10
306.5
20
181.50000000000006
0
LWPOLYLINE
5
345
100
AcDbEntity
8
0
100
AcDbPolyline
90
4
70
1
43
0.0
10
356.5
20
184.50000000000003
10
359.5
20
184.50000000000003
10
359.5
20
181.50000000000006
10
356.5
20
181.50000000000006
0
LWPOLYLINE
5
346
100
AcDbEntity
8
0
100
AcDbPolyline
90
4
70
1
43
0.0
10
406.5
20
184.50000000000003
10
409.5
20
184.50000000000003
10
409.5
20
181.50000000000006
10
406.5
20
181.50000000000006
0
LWPOLYLINE
5
347
100
AcDbEntity
8
0
100
AcDbPolyline
90
4
70
1
43
0.0
10
456.5
20
184.50000000000003
10
459.5
20
184.50000000000003
10
459.5
20
181.50000000000006
10
456.5
20
181.50000000000006
0
LWPOLYLINE
5
348
100
AcDbEntity
8
0
100
AcDbPolyline
90
4
70
1
43
0.0
10
506.5
20
184.50000000000003
10
509.5
20
184.50000000000003
10
509.5
20
181.50000000000006
10
506.5
20
181.50000000000006
0
LWPOLYLINE
5
349
100
AcDbEntity
8
0
100
AcDbPolyline
90
4
70
1
43
0.0
10
56.5
20
172.00000000000003
10
59.5
20
172.00000000000003
10
59.500000000000036
20
169.00000000000006
10
56.5
20
169.00000000000006
0
LWPOLYLINE
5
350
100
AcDbEntity
8
0
100
AcDbPolyline
90
4
70
1
43
0.0
10
106.5
20
172.00000000000003
10
109.5
20
172.00000000000003
10
109.50000000000003
20
169.00000000000006
10
106.5
20
169.00000000000006
0
LWPOLYLINE
5
351
100
AcDbEntity
8
0
100
AcDbPolyline
90
4
70
1
43
0.0
10
156.5
20
172.00000000000003
10
159.5
20
172.00000000000003
10
159.50000000000003
20
169.00000000000006
10
156.5
20
169.00000000000006
0
LWPOLYLINE
5
352
100
AcDbEntity
8
0
100
AcDbPolyline
90
4
70
1
43
0.0
10
206.5
20
172.00000000000003
10
209.5
20
172.00000000000003
10
209.50000000000003
20
169.00000000000006
10
206.5
20
169.00000000000006
0
LWPOLYLINE
5
353
100
AcDbEntity
8
0
100
AcDbPolyline
90
4
70
1
43
0.0
10
256.5
20
172.00000000000003
10
259.5
20
172.00000000000003
10
259.5
20
169.00000000000006
10
256.5
20
169.00000000000006
0
LWPOLYLINE
5
354
100
AcDbEntity
8
0
100
AcDbPolyline
90
4
70
1
43
0.0
10
306.5
20
172.00000000000003
10
309.5
20
172.00000000000003
10
309.5
20
169.00000000000006
10
306.5
20
169.00000000000006
0
LWPOLYLINE
5
355
100
AcDbEntity
8
0
100
AcDbPolyline
90
4
70
1
43
0.0
10
356.5
20
172.00000000000003
10
359.5
20
172.00000000000003
10
359.5
20
169.00000000000006
10
356.5
20
169.00000000000006
0
LWPOLYLINE
5
356
100
AcDbEntity
8
0
100
AcDbPolyline
90
4
70
1
43
0.0
10
406.5
20
172.00000000000003
10
409.5
20
172.00000000000003
10
409.5
20
169.00000000000006
10
406.5
20
169.00000000000006
0
LWPOLYLINE
5
357
100
AcDbEntity
8
0
100
AcDbPolyline
90
4
70
1
43
0.0
10
456.5
20
172.00000000000003
10
459.5
20
172.00000000000003
10
459.5
20
169.00000000000006
10
456.5
20
169.00000000000006
0
LWPOLYLINE
5
358
100
AcDbEntity
8
0
100
AcDbPolyline
90
4
70
1
43
0.0
10
506.5
20
172.00000000000003
10
509.5
20
172.00000000000003
10
509.5
20
169.00000000000006
10
506.5
20
169.00000000000006
0
LWPOLYLINE
5
359
100
AcDbEntity
8
0
100
AcDbPolyline
90
4
70
1
43
0.0
10
56.5
20
159.50000000000003
10
59.5
20
159.50000000000003
10
59.500000000000036
20
156.50000000000006
10
56.5
20
156.50000000000006
0
LWPOLYLINE
5
360
100
AcDbEntity
8
0
100
AcDbPolyline
90
4
70
1
43
0.0
10
106.5
20
159.50000000000003
10
109.5
20
159.50000000000003
10
109.50000000000003
20
156.50000000000006
10
106.5
20
156.50000000000006
0
LWPOLYLINE
5
361
100
AcDbEntity
8
0
100
AcDbPolyline
90
4
70
1
43
0.0
10
156.5
20
159.50000000000003
10
159.5
20
159.50000000000003
10
159.50000000000003
20
156.50000000000006
10
156.5
20
156.50000000000006
0
LWPOLYLINE
5
362
100
AcDbEntity
8
0
100
AcDbPolyline
90
4
70
1
43
0.0
10
206.5
20
159.50000000000003
10
209.5
20
159.50000000000003
10
209.50000000000003
20
156.50000000000006
10
206.5
20
156.50000000000006
0
LWPOLYLINE
5
363
100
AcDbEntity
8
0
100
AcDbPolyline
90
4
70
1
43
0.0
10
256.5
20
159.50000000000003
10
259.5
20
159.50000000000003
10
259.5
20
156.50000000000006
10
256.5
20
156.50000000000006
0
LWPOLYLINE
5
364
100
AcDbEntity
8
0
100
AcDbPolyline
90
4
70
1
43
0.0
10
306.5
20
159.50000000000003
10
309.5
20
159.50000000000003
10
309.5
20
156.50000000000006
10
306.5
20
156.50000000000006
0
LWPOLYLINE
5
365
100
AcDbEntity
8
0
100
AcDbPolyline
90
4
70
1
43
0.0
10
356.5
20
159.50000000000003
10
359.5
20
159.50000000000003
10
359.5
20
156.50000000000006
10
356.5
20
156.50000000000006
0
LWPOLYLINE
5
366
100
AcDbEntity
8
0
100
AcDbPolyline
90
4
70
1
43
0.0
10
406.5
20
159.50000000000003
10
409.5
20
159.50000000000003
10
409.5
20
156.50000000000006
10
406.5
20
156.50000000000006
0
LWPOLYLINE
5
367
100
AcDbEntity
8
0
100
AcDbPolyline
90
4
70
1
43
0.0
10
456.5
20
159.50000000000003
10
459.5
20
159.50000000000003
10
459.5
20
156.50000000000006
10
456.5
20
156.50000000000006
0
LWPOLYLINE
5
368
100
AcDbEntity
8
0
100
AcDbPolyline
90
4
70
1
43
0.0
10
506.5
20
159.50000000000003
10
509.5
20
159.50000000000003
10
509.5
20
156.50000000000006
10
506.5
20
156.50000000000006
0
LWPOLYLINE
5
369
100
AcDbEntity
8
0
100
AcDbPolyline
90
4
70
1
43
0.0
10
56.5
20
147.00000000000003
10
59.5
20
147.00000000000003
10
59.500000000000036
20
144.00000000000006
10
56.5
20
144.00000000000006
0
LWPOLYLINE
5
370
100
AcDbEntity
8
0
100
AcDbPolyline
90
4
70
1
43
0.0
10
106.5
20
147.00000000000003
10
109.5
20
147.00000000000003
10
109.50000000000003
20
144.00000000000006
10
106.5
20
144.00000000000006
0
LWPOLYLINE
5
371
100
AcDbEntity
8
0
100
AcDbPolyline
90
4
70
1
43
0.0
10
156.5
20
147.00000000000003
10
159.5
20
147.00000000000003
10
159.50000000000003
20
144.00000000000006
10
156.5
20
144.00000000000006
0
LWPOLYLINE
5
372
100
AcDbEntity
8
0
100
AcDbPolyline
90
4
70
1
43
0.0
10
206.5
20
147.00000000000003
10
209.5
20
147.00000000000003
10
209.50000000000003
20
144.00000000000006
10
206.5
20
144.00000000000006
0
LWPOLYLINE
5
373
100
AcDbEntity
8
0
100
AcDbPolyline
90
4
70
1
43
0.0
10
256.5
20
147.00000000000003
10
259.5
20
147.00000000000003
10
259.5
20
144.00000000000006
10
256.5
20
144.00000000000006
0
LWPOLYLINE
5
374
100
AcDbEntity
8
0
100
AcDbPolyline
90
4
70
1
43
0.0
10
306.5
20
147.00000000000003
10
309.5
20
147.00000000000003
10
309.5
20
144.00000000000006
10
306.5
20
144.00000000000006
0
LWPOLYLINE
5
375
100
AcDbEntity
8
0
100
AcDbPolyline
90
4
70
1
43
0.0
10
356.5
20
147.00000000000003
10
359.5
20
147.00000000000003
10
359.5
20
144.00000000000006
10
356.5
20
144.00000000000006
0
LWPOLYLINE
5
376
100
AcDbEntity
8
0
100
AcDbPolyline
90
4
70
1
43
0.0
10
406.5
20
147.00000000000003
10
409.5
20
147.00000000000003
10
409.5
20
144.00000000000006
10
406.5
20
144.00000000000006
0
LWPOLYLINE
5
377
100
AcDbEntity
8
0
100
AcDbPolyline
90
4
70
1
43
0.0
10
456.5
20
147.00000000000003
10
459.5
20
147.00000000000003
10
459.5
20
144.00000000000006
10
456.5
20
144.00000000000006
0
LWPOLYLINE
5
378
100
AcDbEntity
8
0
100
AcDbPolyline
90
4
70
1
43
0.0
10
506.5
20
147.00000000000003
10
509.5
20
147.00000000000003
10
509.5
20
144.00000000000006
10
506.5
20
144.00000000000006
0
LWPOLYLINE
5
379
100
AcDbEntity
8
0
100
AcDbPolyline
90
4
70
1
43
0.0
10
56.5
20
134.50000000000003
10
59.5
20
134.50000000000003
10
59.500000000000036
20
131.50000000000006
10
56.5
20
131.50000000000006
0
LWPOLYLINE
5
380
100
AcDbEntity
8
0
100
AcDbPolyline
90
4
70
1
43
0.0
10
106.5
20
134.50000000000003
10
109.5
20
134.50000000000003
10
109.50000000000003
20
131.50000000000006
10
106.5
20
131.50000000000006
0
LWPOLYLINE
5
381
100
AcDbEntity
8
0
100
AcDbPolyline
90
4
70
1
43
0.0
10
156.5
20
134.50000000000003
10
159.5
20
134.50000000000003
10
159.50000000000003
20
131.50000000000006
10
156.5
20
131.50000000000006
0
LWPOLYLINE
5
382
100
AcDbEntity
8
0
100
AcDbPolyline
90
4
70
1
43
0.0
10
206.5
20
134.50000000000003
10
209.5
20
134.50000000000003
10
209.50000000000003
20
131.50000000000006
10
206.5
20
131.50000000000006
0
LWPOLYLINE
5
383
100
AcDbEntity
8
0
100
AcDbPolyline
90
4
70
1
43
0.0
10
256.5
20
134.50000000000003
10
259.5
20
134.50000000000003
10
259.5
20
131.50000000000006
10
256.5
20
131.50000000000006
0
LWPOLYLINE
5
384
100
AcDbEntity
8
0
100
AcDbPolyline
90
4
70
1
43
0.0
10
306.5
20
134.50000000000003
10
309.5
20
134.50000000000003
10
309.5
20
131.50000000000006
10
306.5
20
131.50000000000006
0
LWPOLYLINE
5
385
100
AcDbEntity
8
0
100
AcDbPolyline
90
4
70
1
43
0.0
10
356.5
20
134.50000000000003
10
359.5
20
134.50000000000003
10
359.5
20
131.50000000000006
10
356.5
20
131.50000000000006
0
LWPOLYLINE
5
386
100
AcDbEntity
8
0
100
AcDbPolyline
90
4
70
1
43
0.0
10
406.5
20
134.50000000000003
10
409.5
20
134.50000000000003
10
409.5
20
131.50000000000006
10
406.5
20
131.50000000000006
0
LWPOLYLINE
5
387
100
AcDbEntity
8
0
100
AcDbPolyline
90
4
70
1
43
0.0
10
456.5
20
134.50000000000003
10
459.5
20
134.50000000000003
10
459.5
20
131.50000000000006
10
456.5
20
131.50000000000006
0
LWPOLYLINE
5
388
100
AcDbEntity
8
0
100
AcDbPolyline
90
4
70
1
43
0.0
10
506.5
20
134.50000000000003
10
509.5
20
134.50000000000003
10
509.5
20
131.50000000000006
10
506.5
20
131.50000000000006
0
LWPOLYLINE
5
389
100
AcDbEntity
8
0
100
AcDbPolyline
90
4
70
1
43
0.0
10
56.5
20
122.00000000000003
10
59.5
20
122.00000000000003
10
59.500000000000036
20
119.00000000000006
10
56.5
20
119.00000000000006
0
LWPOLYLINE
5
390
100
AcDbEntity
8
0
100
AcDbPolyline
90
4
70
1
43
0.0
10
106.5
20
122.00000000000003
10
109.5
20
122.00000000000003
10
109.50000000000003
20
119.00000000000006
10
106.5
20
119.00000000000006
0
LWPOLYLINE
5
391
100
AcDbEntity
8
0
100
AcDbPolyline
90
4
70
1
43
0.0
10
156.5
20
122.00000000000003
10
159.5
20
122.00000000000003
10
159.50000000000003
20
119.00000000000006
10
156.5
20
119.00000000000006
0
LWPOLYLINE
5
392
100
AcDbEntity
8
0
100
AcDbPolyline
90
4
70
1
43
0.0
10
206.5
20
122.00000000000003
10
209.5
20
122.00000000000003
10
209.50000000000003
20
119.00000000000006
10
206.5
20
119.00000000000006
0
LWPOLYLINE
5
393
100
AcDbEntity
8
0
100
AcDbPolyline
90
4
70
1
43
0.0
10
256.5
20
122.00000000000003
10
259.5
20
122.00000000000003
10
259.5
20
119.00000000000006
10
256.5
20
119.00000000000006
0
LWPOLYLINE
5
394
100
AcDbEntity
8
0
100
AcDbPolyline
90
4
70
1
43
0.0
10
306.5
20
122.00000000000003
10
309.5
20
122.00000000000003
10
309.5
20
119.00000000000006
10
306.5
20
119.00000000000006
0
LWPOLYLINE
5
395
100
AcDbEntity
8
0
100
AcDbPolyline
90
4
70
1
43
0.0
10
356.5
20
122.00000000000003
10
359.5
20
122.00000000000003
10
359.5
20
119.00000000000006
10
356.5
20
119.00000000000006
0
LWPOLYLINE
5
396
100
AcDbEntity
8
0
100
AcDbPolyline
90
4
70
1
43
0.0
10
406.5
20
122.00000000000003
10
409.5
20
122.00000000000003
10
409.5
20
119.00000000000006
10
406.5
20
119.00000000000006
0
LWPOLYLINE
5
397
100
AcDbEntity
8
0
100
AcDbPolyline
90
4
70
1
43
0.0
10
456.5
20
122.00000000000003
10
459.5
20
122.00000000000003
10
459.5
20
119.00000000000006
10
456.5
20
119.00000000000006
0
LWPOLYLINE
5
398
100
AcDbEntity
8
0
100
AcDbPolyline
90
4
70
1
43
0.0
10
506.5
20
122.00000000000003
10
509.5
20
122.00000000000003
10
509.5
20
119.00000000000006
10
506.5
20
119.00000000000006
0
LWPOLYLINE
5
399
100
AcDbEntity
8
0
100
AcDbPolyline
90
4
70
1
43
0.0
10
56.5
20
109.50000000000003
10
59.5
20
109.50000000000003
10
59.500000000000036
20
106.50000000000006
10
56.5
20
106.50000000000006
0
LWPOLYLINE
5
400
100
AcDbEntity
8
0
100
AcDbPolyline
90
4
70
1
43
0.0
10
106.5
20
109.50000000000003
10
109.5
20
109.50000000000003
10
109.50000000000003
20
106.50000000000006
10
106.5
20
106.50000000000006
0
LWPOLYLINE
5
401
100
AcDbEntity
8
0
100
AcDbPolyline
90
4
70
1
43
0.0
10
156.5
20
109.50000000000003
10
159.5
20
109.50000000000003
10
159.50000000000003
20
106.50000000000006
10
156.5
20
106.50000000000006
0
LWPOLYLINE
5
402
100
AcDbEntity
8
0
100
AcDbPolyline
90
4
70
1
43
0.0
10
206.5
20
109.50000000000003
10
209.5
20
109.50000000000003
10
209.50000000000003
20
106.50000000000006
10
206.5
20
106.50000000000006
0
LWPOLYLINE
5
403
100
AcDbEntity
8
0
100
AcDbPolyline
90
4
70
1
43
0.0
10
256.5
20
109.50000000000003
10
259.5
20
109.50000000000003
10
259.5
20
106.50000000000006
10
256.5
20
106.50000000000006
0
LWPOLYLINE
5
404
100
AcDbEntity
8
0
100
AcDbPolyline
90
4
70
1
43
0.0
10
306.5
20
109.50000000000003
10
309.5
20
109.50000000000003
10
309.5
20
106.50000000000006
10
306.5
20
106.50000000000006
0
LWPOLYLINE
5
405
100
AcDbEntity
8
0
100
AcDbPolyline
90
4
70
1
43
0.0
10
356.5
20
109.50000000000003
10
359.5
20
109.50000000000003
10
359.5
20
106.50000000000006
10
356.5
20
106.50000000000006
0
LWPOLYLINE
5
406
100
AcDbEntity
8
0
100
AcDbPolyline
90
4
70
1
43
0.0
10
406.5
20
109.50000000000003
10
409.5
20
109.50000000000003
10
409.5
20
106.50000000000006
10
406.5
20
106.50000000000006
0
LWPOLYLINE
5
407
100
AcDbEntity
8
0
100
AcDbPolyline
90
4
70
1
43
0.0
10
456.5
20
109.50000000000003
10
459.5
20
109.50000000000003
10
459.5
20
106.50000000000006
10
456.5
20
106.50000000000006
0
LWPOLYLINE
5
408
100
AcDbEntity
8
0
100
AcDbPolyline
90
4
70
1
43
0.0
10
506.5
20
109.50000000000003
10
509.5
20
109.50000000000003
10
509.5
20
106.50000000000006
10
506.5
20
106.50000000000006
0
LWPOLYLINE
5
409
100
AcDbEntity
8
0
100
AcDbPolyline
90
4
70
1
43
0.0
10
56.5
20
97.000000000000028
10
59.5
20
97.000000000000028
10
59.500000000000036
20
94.000000000000057
10
56.5
20
94.000000000000057
0
LWPOLYLINE
5
410
100
AcDbEntity
8
0
100
AcDbPolyline
90
4
70
1
43
0.0
10
106.5
20
97.000000000000028
10
109.5
20
97.000000000000028
10
109.50000000000003
20
94.000000000000057
10
106.5
20
94.000000000000057
0
LWPOLYLINE
5
411
100
AcDbEntity
8
0
100
AcDbPolyline
90
4
70
1
43
0.0
10
156.5
20
97.000000000000028
10
159.5
20
97.000000000000028
10
159.50000000000003
20
94.000000000000057
10
156.5
20
94.000000000000057
0
LWPOLYLINE
5
412
100
AcDbEntity
8
0
100
AcDbPolyline
90
4
70
1
43
0.0
10
206.5
20
97.000000000000028
10
209.5
20
97.000000000000028
10
209.50000000000003
20
94.000000000000057
10
206.5
20
94.000000000000057
0
LWPOLYLINE
5
413
100
AcDbEntity
8
0
100
AcDbPolyline
90
4
70
1
43
0.0
10
256.5
20
97.000000000000028
10
259.5
20
97.000000000000028
10
259.5
20
94.000000000000057
10
256.5
20
94.000000000000057
0
LWPOLYLINE
5
414
100
AcDbEntity
8
0
100
AcDbPolyline
90
4
70
1
43
0.0
10
306.5
20
97.000000000000028
10
309.5
20
97.000000000000028
10
309.5
20
94.000000000000057
10
306.5
20
94.000000000000057
0
LWPOLYLINE
5
415
100
AcDbEntity
8
0
100
AcDbPolyline
90
4
70
1
43
0.0
10
356.5
20
97.000000000000028
10
359.5
20
97.000000000000028
10
359.5
20
94.000000000000057
10
356.5
20
94.000000000000057
0
LWPOLYLINE
5
416
100
AcDbEntity
8
0
100
AcDbPolyline
90
4
70
1
43
0.0
10
406.5
20
97.000000000000028
10
409.5
20
97.000000000000028
10
409.5
20
94.000000000000057
10
406.5
20
94.000000000000057
0
LWPOLYLINE
5
417
100
AcDbEntity
8
0
100
AcDbPolyline
90
4
70
1
43
0.0
10
456.5
20
97.000000000000028
10
459.5
20
97.000000000000028
10
459.5
20
94.000000000000057
10
456.5
20
94.000000000000057
0
LWPOLYLINE
5
418
100
AcDbEntity
8
0
100
AcDbPolyline
90
4
70
1
43
0.0
10
506.5
20
97.000000000000028
10
509.5
20
97.000000000000028
10
509.5
20
94.000000000000057
10
506.5
20
94.000000000000057
0
LWPOLYLINE
5
419
100
AcDbEntity
8
0
100
AcDbPolyline
90
4
70
1
43
0.0
10
56.5
20
84.500000000000028
10
59.5
20
84.500000000000028
10
59.500000000000036
20
81.500000000000057
10
56.5
20
81.500000000000057
0
LWPOLYLINE
5
420
100
AcDbEntity
8
0
100
AcDbPolyline
90
4
70
1
43
0.0
10
106.5
20
84.500000000000028
10
109.5
20
84.500000000000028
10
109.50000000000003
20
81.500000000000057
10
106.5
20
81.500000000000057
0
LWPOLYLINE
5
421
100
AcDbEntity
8
0
100
AcDbPolyline
90
4
70
1
43
0.0
10
156.5
20
84.500000000000028
10
159.5
20
84.500000000000028
10
159.50000000000003
20
81.500000000000057
10
156.5
20
81.500000000000057
0
LWPOLYLINE
5
422
100
AcDbEntity
8
0
100
AcDbPolyline
90
4
70
1
43
0.0
10
206.5
20
84.500000000000028
10
209.5
20
84.500000000000028
10
209.50000000000003
20
81.500000000000057
10
206.5
20
81.500000000000057
0
LWPOLYLINE
5
423
100
AcDbEntity
8
0
100
AcDbPolyline
90
4
70
1
43
0.0
10
256.5
20
84.500000000000028
10
259.5
20
84.500000000000028
10
259.5
20
81.500000000000057
10
256.5
20
81.500000000000057
0
LWPOLYLINE
5
424
100
AcDbEntity
8
0
100
AcDbPolyline
90
4
70
1
43
0.0
10
306.5
20
84.500000000000028
10
309.5
20
84.500000000000028
10
309.5
20
81.500000000000057
10
306.5
20
81.500000000000057
0
LWPOLYLINE
5
425
100
AcDbEntity
8
0
100
AcDbPolyline
90
4
70
1
43
0.0
10
356.5
20
84.500000000000028
10
359.5
20
84.500000000000028
10
359.5
20
81.500000000000057
10
356.5
20
81.500000000000057
0
LWPOLYLINE
5
426
100
AcDbEntity
8
0
100
AcDbPolyline
90
4
70
1
43
0.0
10
406.5
20
84.500000000000028
10
409.5
20
84.500000000000028
10
409.5
20
81.500000000000057
10
406.5
20
81.500000000000057
0
LWPOLYLINE
5
427
100
AcDbEntity
8
0
100
AcDbPolyline
90
4
70
1
43
0.0
10
456.5
20
84.500000000000028
10
459.5
20
84.500000000000028
10
459.5
20
81.500000000000057
10
456.5
20
81.500000000000057
0
LWPOLYLINE
5
428
100
AcDbEntity
8
0
100
AcDbPolyline
90
4
70
1
43
0.0
10
506.5
20
84.500000000000028
10
509.5
20
84.500000000000028
10
509.5
20
81.500000000000057
10
506.5
20
81.500000000000057
0
LWPOLYLINE
5
429
100
AcDbEntity
8
0
100
AcDbPolyline
90
4
70
1
43
0.0
10
56.5
20
72.000000000000028
10
59.5
20
72.000000000000028
10
59.500000000000036
20
69.000000000000057
10
56.5
20
69.000000000000057
0
LWPOLYLINE
5
430
100
AcDbEntity
8
0
100
AcDbPolyline
90
4
70
1
43
0.0
10
106.5
20
72.000000000000028
10
109.5
20
72.000000000000028
10
109.50000000000003
20
69.000000000000057
10
106.5
20
69.000000000000057
0
LWPOLYLINE
5
431
100
AcDbEntity
8
0
100
AcDbPolyline
90
4
70
1
43
0.0
10
156.5
20
72.000000000000028
10
159.5
20
72.000000000000028
10
159.50000000000003
20
69.000000000000057
10
156.5
20
69.000000000000057
0
LWPOLYLINE
5
432
100
AcDbEntity
8
0
100
AcDbPolyline
90
4
70
1
43
0.0
10
206.5
20
72.000000000000028
10
209.5
20
72.000000000000028
10
209.50000000000003
20
69.000000000000057
10
206.5
20
69.000000000000057
0
LWPOLYLINE
5
433
100
AcDbEntity
8
0
100
AcDbPolyline
90
4
70
1
43
0.0
10
256.5
20
72.000000000000028
10
259.5
20
72.000000000000028
10
259.5
20
69.000000000000057
10
256.5
20
69.000000000000057
0
LWPOLYLINE
5
434
100
AcDbEntity
8
0
100
AcDbPolyline
90
4
70
1
43
0.0
10
306.5
20
72.000000000000028
10
309.5
20
72.000000000000028
10
309.5
20
69.000000000000057
10
306.5
20
69.000000000000057
0
LWPOLYLINE
5
435
100
AcDbEntity
8
0
100
AcDbPolyline
90
4
70
1
43
0.0
10
356.5
20
72.000000000000028
10
359.5
20
72.000000000000028
10
359.5
20
69.000000000000057
10
356.5
20
69.000000000000057
0
LWPOLYLINE
5
436
100
AcDbEntity
8
0
100
AcDbPolyline
90
4
70
1
43
0.0
10
406.5
20
72.000000000000028
10
409.5
20
72.000000000000028
10
409.5
20
69.000000000000057
10
406.5
20
69.000000000000057
0
LWPOLYLINE
5
437
100
AcDbEntity
8
0
100
AcDbPolyline
90
4
70
1
43
0.0
10
456.5
20
72.000000000000028
10
459.5
20
72.000000000000028
10
459.5
20
69.000000000000057
10
456.5
20
69.000000000000057
0
LWPOLYLINE
5
438
100
AcDbEntity
8
0
100
AcDbPolyline
90
4
70
1
43
0.0
10
506.5
20
72.000000000000028
10
509.5
20
72.000000000000028
10
509.5
20
69.000000000000057
10
506.5
20
69.000000000000057
0
LWPOLYLINE
5
439
100
AcDbEntity
8
0
100
AcDbPolyline
90
4
70
1
43
0.0
10
56.5
20
59.500000000000028
10
59.5
20
59.500000000000028
10
59.500000000000036
20
56.500000000000057
10
56.5
20
56.500000000000057
0
LWPOLYLINE
5
440
100
AcDbEntity
8
0
100
AcDbPolyline
90
4
70
1
43
0.0
10
106.5
20
59.500000000000028
10
109.5
20
59.500000000000028
10
109.50000000000003
20
56.500000000000057
10
106.5
20
56.500000000000057
0
LWPOLYLINE
5
441
100
AcDbEntity
8
0
100
AcDbPolyline
90
4
70
1
43
0.0
10
156.5
20
59.500000000000028
10
159.5
20
59.500000000000028
10
159.50000000000003
20
56.500000000000057
10
156.5
20
56.500000000000057
0
LWPOLYLINE
5
442
100
AcDbEntity
8
0
100
AcDbPolyline
90
4
70
1
43
0.0
10
206.5
20
59.500000000000028
10
209.5
20
59.500000000000028
10
209.50000000000003
20
56.500000000000057
10
206.5
20
56.500000000000057
0
LWPOLYLINE
5
443
100
AcDbEntity
8
0
100
AcDbPolyline
90
4
70
1
43
0.0
10
256.5
20
59.500000000000028
10
259.5
20
59.500000000000028
10
259.5
20
56.500000000000057
10
256.5
20
56.500000000000057
0
LWPOLYLINE
5
444
100
AcDbEntity
8
0
100
AcDbPolyline
90
4
70
1
43
0.0
10
306.5
20
59.500000000000028
10
309.5
20
59.500000000000028
10
309.5
20
56.500000000000057
10
306.5
20
56.500000000000057
0
LWPOLYLINE
5
445
100
AcDbEntity
8
0
100
AcDbPolyline
90
4
70
1
43
0.0
10
356.5
20
59.500000000000028
10
359.5
20
59.500000000000028
10
359.5
20
56.500000000000057
10
356.5
20
56.500000000000057
0
LWPOLYLINE
5
446
100
AcDbEntity
8
0
100
AcDbPolyline
90
4
70
1
43
0.0
10
406.5
20
59.500000000000028
10
409.5
20
59.500000000000028
10
409.5
20
56.500000000000057
10
406.5
20
56.500000000000057
0
LWPOLYLINE
5
447
100
AcDbEntity
8
0
100
AcDbPolyline
90
4
70
1
43
0.0
10
456.5
20
59.500000000000028
10
459.5
20
59.500000000000028
10
459.5
20
56.500000000000057
10
456.5
20
56.500000000000057
0
LWPOLYLINE
5
448
100
AcDbEntity
8
0
100
AcDbPolyline
90
4
70
1
43
0.0
10
506.5
20
59.500000000000028
10
509.5
20
59.500000000000028
10
509.5
20
56.500000000000057
10
506.5
20
56.500000000000057
0
LWPOLYLINE
5
449
100
AcDbEntity
8
0
100
AcDbPolyline
90
4
70
1
43
0.0
10
56.5
20
47.000000000000028
10
59.5
20
47.000000000000028
10
59.500000000000036
20
44.000000000000057
10
56.5
20
44.000000000000057
0
LWPOLYLINE
5
450
100
AcDbEntity
8
0
100
AcDbPolyline
90
4
70
1
43
0.0
10
106.5
20
47.000000000000028
10
109.5
20
47.000000000000028
10
109.50000000000003
20
44.000000000000057
10
106.5
20
44.000000000000057
0
LWPOLYLINE
5
451
100
AcDbEntity
8
0
100
AcDbPolyline
90
4
70
1
43
0.0
10
156.5
20
47.000000000000028
10
159.5
20
47.000000000000028
10
159.50000000000003
20
44.000000000000057
10
156.5
20
44.000000000000057
0
LWPOLYLINE
5
452
100
AcDbEntity
8
0
100
AcDbPolyline
90
4
70
1
43
0.0
10
206.5
20
47.000000000000028
10
209.5
20
47.000000000000028
10
209.50000000000003
20
44.000000000000057
10
206.5
20
44.000000000000057
0
LWPOLYLINE
5
453
100
AcDbEntity
8
0
100
AcDbPolyline
90
4
70
1
43
0.0
10
256.5
20
47.000000000000028
10
259.5
20
47.000000000000028
10
259.5
20
44.000000000000057
10
256.5
20
44.000000000000057
0
LWPOLYLINE
5
454
100
AcDbEntity
8
0
100
AcDbPolyline
90
4
70
1
43
0.0
10
306.5
20
47.000000000000028
10
309.5
20
47.000000000000028
10
309.5
20
44.000000000000057
10
306.5
20
44.000000000000057
0
LWPOLYLINE
5
455
100
AcDbEntity
8
0
100
AcDbPolyline
90
4
70
1
43
0.0
10
356.5
20
47.000000000000028
10
359.5
20
47.000000000000028
10
359.5
20
44.000000000000057
10
356.5
20
44.000000000000057
0
LWPOLYLINE
5
456
100
AcDbEntity
8
0
100
AcDbPolyline
90
4
70
1
43
0.0
10
406.5
20
47.000000000000028
10
409.5
20
47.000000000000028
10
409.5
20
44.000000000000057
10
406.5
20
44.000000000000057
0
LWPOLYLINE
5
457
100
AcDbEntity
8
0
100
AcDbPolyline
90
4
70
1
43
0.0
10
456.5
20
47.000000000000028
10
459.5
20
47.000000000000028
10
459.5
20
44.000000000000057
10
456.5
20
44.000000000000057
0
LWPOLYLINE
5
458
100
AcDbEntity
8
0
100
AcDbPolyline
90
4
70
1
43
0.0
10
506.5
20
47.000000000000028
10
509.5
20
47.000000000000028
10
509.5
20
44.000000000000057
10
506.5
20
44.000000000000057
0
LWPOLYLINE
5
459
100
AcDbEntity
8
0
100
AcDbPolyline
90
4
70
1
43
0.0
10
56.5
20
34.500000000000028
10
59.5
20
34.500000000000028
10
59.500000000000036
20
31.500000000000057
10
56.5
20
31.500000000000057
0
LWPOLYLINE
5
460
100
AcDbEntity
8
0
100
AcDbPolyline
90
4
70
1
43
0.0
10
106.5
20
34.500000000000028
10
109.5
20
34.500000000000028
10
109.50000000000003
20
31.500000000000057
10
106.5
20
31.500000000000057
0
LWPOLYLINE
5
461
100
AcDbEntity
8
0
100
AcDbPolyline
90
4
70
1
43
0.0
10
156.5
20
34.500000000000028
10
159.5
20
34.500000000000028
10
159.50000000000003
20
31.500000000000057
10
156.5
20
31.500000000000057
0
LWPOLYLINE
5
462
100
AcDbEntity
8
0
100
AcDbPolyline
90
4
70
1
43
0.0
10
206.5
20
34.500000000000028
10
209.5
20
34.500000000000028
10
209.50000000000003
20
31.500000000000057
10
206.5
20
31.500000000000057
0
LWPOLYLINE
5
463
100
AcDbEntity
8
0
100
AcDbPolyline
90
4
70
1
43
0.0
10
256.5
20
34.500000000000028
10
259.5
20
34.500000000000028
10
259.5
20
31.500000000000057
10
256.5
20
31.500000000000057
0
LWPOLYLINE
5
464
100
AcDbEntity
8
0
100
AcDbPolyline
90
4
70
1
43
0.0
10
306.5
20
34.500000000000028
10
309.5
20
34.500000000000028
10
309.5
20
31.500000000000057
10
306.5
20
31.500000000000057
0
LWPOLYLINE
5
465
100
AcDbEntity
8
0
100
AcDbPolyline
90
4
70
1
43
0.0
10
356.5
20
34.500000000000028
10
359.5
20
34.500000000000028
10
359.5
20
31.500000000000057
10
356.5
20
31.500000000000057
0
LWPOLYLINE
5
466
100
AcDbEntity
8
0
100
AcDbPolyline
90
4
70
1
43
0.0
10
406.5
20
34.500000000000028
10
409.5
20
34.500000000000028
10
409.5
20
31.500000000000057
10
406.5
20
31.500000000000057
0
LWPOLYLINE
5
467
100
AcDbEntity
8
0
100
AcDbPolyline
90
4
70
1
43
0.0
10
456.5
20
34.500000000000028
10
459.5
20
34.500000000000028
10
459.5
20
31.500000000000057
10
456.5
20
31.500000000000057
0
LWPOLYLINE
5
468
100
AcDbEntity
8
0
100
AcDbPolyline
90
4
70
1
43
0.0
10
506.5
20
34.500000000000028
10
509.5
20
34.500000000000028
10
509.5
20
31.500000000000057
10
506.5
20
31.500000000000057
0
LWPOLYLINE
5
469
100
AcDbEntity
8
0
100
AcDbPolyline
90
4
70
1
43
0.0
10
56.5
20
22.000000000000028
10
59.5
20
22.000000000000028
10
59.500000000000036
20
19.000000000000057
10
56.5
20
19.000000000000057
0
LWPOLYLINE
5
470
100
AcDbEntity
8
0
100
AcDbPolyline
90
4
70
1
43
0.0
10
106.5
20
22.000000000000028
10
109.5
20
22.000000000000028
10
109.50000000000003
20
19.000000000000057
10
106.5
20
19.000000000000057
0
LWPOLYLINE
5
471
100
AcDbEntity
8
0
100
AcDbPolyline
90
4
70
1
43
0.0
10
156.5
20
22.000000000000028
10
159.5
20
22.000000000000028
10
159.50000000000003
20
19.000000000000057
10
156.5
20
19.000000000000057
0
LWPOLYLINE
5
472
100
AcDbEntity
8
0
100
AcDbPolyline
90
4
70
1
43
0.0
10
206.5
20
22.000000000000028
10
209.5
20
22.000000000000028
10
209.50000000000003
20
19.000000000000057
10
206.5
20
19.000000000000057
0
LWPOLYLINE
5
473
100
AcDbEntity
8
0
100
AcDbPolyline
90
4
70
1
43
0.0
10
256.5
20
22.000000000000028
10
259.5
20
22.000000000000028
10
259.5
20
19.000000000000057
10
256.5
20
19.000000000000057
0
LWPOLYLINE
5
474
100
AcDbEntity
8
0
100
AcDbPolyline
90
4
70
1
43
0.0
10
306.5
20
22.000000000000028
10
309.5
20
22.000000000000028
10
309.5
20
19.000000000000057
10
306.5
20
19.000000000000057
0
LWPOLYLINE
5
475
100
AcDbEntity
8
0
100
AcDbPolyline
90
4
70
1
43
0.0
10
356.5
20
22.000000000000028
10
359.5
20
22.000000000000028
10
359.5
20
19.000000000000057
10
356.5
20
19.000000000000057
0
LWPOLYLINE
5
476
100
AcDbEntity
8
0
100
AcDbPolyline
90
4
70
1
43
0.0
10
406.5
20
22.000000000000028
10
409.5
20
22.000000000000028
10
409.5
20
19.000000000000057
10
406.5
20
19.000000000000057
0
LWPOLYLINE
5
477
100
AcDbEntity
8
0
100
AcDbPolyline
90
4
70
1
43
0.0
10
456.5
20
22.000000000000028
10
459.5
20
22.000000000000028
10
459.5
20
19.000000000000057
10
456.5
20
19.000000000000057
0
LWPOLYLINE
5
478
100
AcDbEntity
8
0
100
AcDbPolyline
90
4
70
1
43
0.0
10
506.5
20
22.000000000000028
10
509.5
20
22.000000000000028
10
509.5
20
19.000000000000057
10
506.5
20
19.000000000000057
0
LWPOLYLINE
5
479
100
AcDbEntity
8
0
100
AcDbPolyline
90
4
70
1
43
0.0
10
56.5
20
9.5000000000000284
10
59.5
20
9.5000000000000284
10
59.500000000000036
20
6.5000000000000568
10
56.5
20
6.5000000000000568
0
LWPOLYLINE
5
480
100
AcDbEntity
8
0
100
AcDbPolyline
90
4
70
1
43
0.0
10
106.5
20
9.5000000000000284
10
109.5
20
9.5000000000000284
10
109.50000000000003
20
6.5000000000000568
10
106.5
20
6.5000000000000568
0
LWPOLYLINE
5
481
100
AcDbEntity
8
0
100
AcDbPolyline
90
4
70
1
43
0.0
10
156.5
20
9.5000000000000284
10
159.5
20
9.5000000000000284
10
159.50000000000003
20
6.5000000000000568
10
156.5
20
6.5000000000000568
0
LWPOLYLINE
5
482
100
AcDbEntity
8
0
100
AcDbPolyline
90
4
70
1
43
0.0
10
206.5
20
9.5000000000000284
10
209.5
20
9.5000000000000284
10
209.50000000000003
20
6.5000000000000568
10
206.5
20
6.5000000000000568
0
LWPOLYLINE
5
483
100
AcDbEntity
8
0
100
AcDbPolyline
90
4
70
1
43
0.0
10
256.5
20
9.5000000000000284
10
259.5
20
9.5000000000000284
10
259.5
20
6.5000000000000568
10
256.5
20
6.5000000000000568
0
LWPOLYLINE
5
484
100
AcDbEntity
8
0
100
AcDbPolyline
90
4
70
1
43
0.0
10
306.5
20
9.5000000000000284
10
309.5
20
9.5000000000000284
10
309.5
20
6.5000000000000568
10
306.5
20
6.5000000000000568
0
LWPOLYLINE
5
485
100
AcDbEntity
8
0
100
AcDbPolyline
90
4
70
1
43
0.0
10
356.5
20
9.5000000000000284
10
359.5
20
9.5000000000000284
10
359.5
20
6.5000000000000568
10
356.5
20
6.5000000000000568
0
LWPOLYLINE
5
486
100
AcDbEntity
8
0
100
AcDbPolyline
90
4
70
1
43
0.0
10
406.5
20
9.5000000000000284
10
409.5
20
9.5000000000000284
10
409.5
20
6.5000000000000568
10
406.5
20
6.5000000000000568
0
LWPOLYLINE
5
487
100
AcDbEntity
8
0
100
AcDbPolyline
90
4
70
1
43
0.0
10
456.5
20
9.5000000000000284
10
459.5
20
9.5000000000000284
10
459.5
20
6.5000000000000568
10
456.5
20
6.5000000000000568
0
LWPOLYLINE
5
488
100
AcDbEntity
8
0
100
AcDbPolyline
90
4
70
1
43
0.0
10
506.5
20
9.5000000000000284
10
509.5
20
9.5000000000000284
10
509.5
20
6.5000000000000568
10
506.5
20
6.5000000000000568
0
LWPOLYLINE
5
489
100
AcDbEntity
8
0
100
AcDbPolyline
90
4
70
1
43
0.0
10
34.500000000000036
20
406.5
10
31.500000000000004
20
406.5
10
31.500000000000004
20
409.49999999999994
10
34.5
20
409.49999999999994
0
LWPOLYLINE
5
490
100
AcDbEntity
8
0
100
AcDbPolyline
90
4
70
1
43
0.0
10
47.000000000000036
20
406.5
10
44
20
406.5
10
44
20
409.49999999999994
10
47
20
409.49999999999994
0
LWPOLYLINE
5
491
100
AcDbEntity
8
0
100
AcDbPolyline
90
4
70
1
43
0.0
10
59.500000000000036
20
406.5
10
56.5
20
406.5
10
56.5
20
409.49999999999994
10
59.5
20
409.49999999999994
0
LWPOLYLINE
5
492
100
AcDbEntity
8
0
100
AcDbPolyline
90
4
70
1
43
0.0
10
72.000000000000043
20
406.5
10
69
20
406.5
10
69
20
409.49999999999994
10
72
20
409.49999999999994
0
LWPOLYLINE
5
493
100
AcDbEntity
8
0
100
AcDbPolyline
90
4
70
1
43
0.0
10
84.500000000000028
20
406.5
10
81.5
20
406.5
10
81.5
20
409.49999999999994
10
84.5
20
409.49999999999994
0
LWPOLYLINE
5
494
100
AcDbEntity
8
0
100
AcDbPolyline
90
4
70
1
43
0.0
10
97.000000000000028
20
406.5
10
94
20
406.5
10
94
20
409.49999999999994
10
97
20
409.49999999999994
0
LWPOLYLINE
5
495
100
AcDbEntity
8
0
100
AcDbPolyline
90
4
70
1
43
0.0
10
109.50000000000003
20
406.5
10
106.5
20
406.5
10
106.5
20
409.49999999999994
10
109.5
20
409.49999999999994
0
LWPOLYLINE
5
496
100
AcDbEntity
8
0
100
AcDbPolyline
90
4
70
1
43
0.0
10
122.00000000000003
20
406.5
10
119
20
406.5
10
119
20
409.49999999999994
10
122
20
409.49999999999994
0
LWPOLYLINE
5
497
100
AcDbEntity
8
0
100
AcDbPolyline
90
4
70
1
43
0.0
10
134.50000000000003
20
406.5
10
131.5
20
406.5
10
131.5
20
409.49999999999994
10
134.5
20
409.49999999999994
0
LWPOLYLINE
5
498
100
AcDbEntity
8
0
100
AcDbPolyline
90
4
70
1
43
0.0
10
147.00000000000003
20
406.5
10
144
20
406.5
10
144
20
409.49999999999994
10
147
20
409.49999999999994
0
LWPOLYLINE
5
499
100
AcDbEntity
8
0
100
AcDbPolyline
90
4
70
1
43
0.0
10
159.50000000000003
20
406.5
10
156.5
20
406.5
10
156.5
20
409.49999999999994
10
159.5
20
409.49999999999994
0
LWPOLYLINE
5
500
100
AcDbEntity
8
0
100
AcDbPolyline
90
4
70
1
43
0.0
10
172.00000000000003
20
406.5
10
169
20
406.5
10
169
20
409.49999999999994
10
172
20
409.49999999999994
0
LWPOLYLINE
5
501
100
AcDbEntity
8
0
100
AcDbPolyline
90
4
70
1
43
0.0
10
184.50000000000003
20
406.5
10
181.5
20
406.5
10
181.5
20
409.49999999999994
10
184.5
20
409.49999999999994
0
LWPOLYLINE
5
502
100
AcDbEntity
8
0
100
AcDbPolyline
90
4
70
1
43
0.0
10
197.00000000000003
20
406.5
10
194
20
406.5
10
194
20
409.49999999999994
10
197
20
409.49999999999994
0
LWPOLYLINE
5
503
100
AcDbEntity
8
0
100
AcDbPolyline
90
4
70
1
43
0.0
10
209.50000000000003
20
406.5
10
206.5
20
406.5
10
206.5
20
409.49999999999994
10
209.5
20
409.49999999999994
0
LWPOLYLINE
5
504
100
AcDbEntity
8
0
100
AcDbPolyline
90
4
70
1
43
0.0
10
222.00000000000003
20
406.5
10
219
20
406.5
10
219
20
409.49999999999994
10
222
20
409.49999999999994
0
LWPOLYLINE
5
505
100
AcDbEntity
8
0
100
AcDbPolyline
90
4
70
1
43
0.0
10
234.50000000000003
20
406.5
10
231.5
20
406.5
10
231.5
20
409.49999999999994
10
234.5
20
409.49999999999994
0
LWPOLYLINE
5
506
100
AcDbEntity
8
0
100
AcDbPolyline
90
4
70
1
43
0.0
10
247.00000000000003
20
406.5
10
244
20
406.5
10
244
20
409.49999999999994
10
247
20
409.49999999999994
0
LWPOLYLINE
5
507
100
AcDbEntity
8
0
100
AcDbPolyline
90
4
70
1
43
0.0
10
259.5
20
406.5
10
256.5
20
406.5
10
256.5
20
409.49999999999994
10
259.5
20
409.49999999999994
0
LWPOLYLINE
5
508
100
AcDbEntity
8
0
100
AcDbPolyline
90
4
70
1
43
0.0
10
272
20
406.5
10
269
20
406.5
10
269
20
409.49999999999994
10
272
20
409.49999999999994
0
LWPOLYLINE
5
509
100
AcDbEntity
8
0
100
AcDbPolyline
90
4
70
1
43
0.0
10
284.5
20
406.5
10
281.5
20
406.5
10
281.5
20
409.49999999999994
10
284.5
20
409.49999999999994
0
LWPOLYLINE
5
510
100
AcDbEntity
8
0
100
AcDbPolyline
90
4
70
1
43
0.0
10
297
20
406.5
10
294
20
406.5
10
294
20
409.49999999999994
10
297
20
409.49999999999994
0
LWPOLYLINE
5
511
100
AcDbEntity
8
0
100
AcDbPolyline
90
4
70
1
43
0.0
10
309.5
20
406.5
10
306.5
20
406.5
10
306.5
20
409.49999999999994
10
309.5
20
409.49999999999994
0
LWPOLYLINE
5
512
100
AcDbEntity
8
0
100
AcDbPolyline
90
4
70
1
43
0.0
10
322
20
406.5
10
319
20
406.5
10
319
20
409.49999999999994
10
322
20
409.49999999999994
0
LWPOLYLINE
5
513
100
AcDbEntity
8
0
100
AcDbPolyline
90
4
70
1
43
0.0
10
334.5
20
406.5
10
331.5
20
406.5
10
331.5
20
409.49999999999994
10
334.5
20
409.49999999999994
0
LWPOLYLINE
5
514
100
AcDbEntity
8
0
100
AcDbPolyline
90
4
70
1
43
0.0
10
347
20
406.5
10
344
20
406.5
10
344
20
409.49999999999994
10
347
20
409.49999999999994
0
LWPOLYLINE
5
515
100
AcDbEntity
8
0
100
AcDbPolyline
90
4
70
1
43
0.0
10
359.5
20
406.5
10
356.5
20
406.5
10
356.5
20
409.49999999999994
10
359.5
20
409.49999999999994
0
LWPOLYLINE
5
516
100
AcDbEntity
8
0
100
AcDbPolyline
90
4
70
1
43
0.0
10
372
20
406.5
10
369
20
406.5
10
369
20
409.49999999999994
10
372
20
409.49999999999994
0
LWPOLYLINE
5
517
100
AcDbEntity
8
0
100
AcDbPolyline
90
4
70
1
43
0.0
10
384.5
20
406.5
10
381.5
20
406.5
10
381.5
20
409.49999999999994
10
384.5
20
409.49999999999994
0
LWPOLYLINE
5
518
100
AcDbEntity
8
0
100
AcDbPolyline
90
4
70
1
43
0.0
10
397
20
406.5
10
394
20
406.5
10
394
20
409.49999999999994
10
397
20
409.49999999999994
0
LWPOLYLINE
5
519
100
AcDbEntity
8
0
100
AcDbPolyline
90
4
70
1
43
0.0
10
409.5
20
406.5
10
406.5
20
406.5
10
406.5
20
409.49999999999994
10
409.5
20
409.49999999999994
0
LWPOLYLINE
5
520
100
AcDbEntity
8
0
100
AcDbPolyline
90
4
70
1
43
0.0
10
422
20
406.5
10
419
20
406.5
10
419
20
409.49999999999994
10
422
20
409.49999999999994
0
LWPOLYLINE
5
521
100
AcDbEntity
8
0
100
AcDbPolyline
90
4
70
1
43
0.0
10
434.5
20
406.5
10
431.5
20
406.5
10
431.5
20
409.49999999999994
10
434.5
20
409.49999999999994
0
LWPOLYLINE
5
522
100
AcDbEntity
8
0
100
AcDbPolyline
90
4
70
1
43
0.0
10
447
20
406.5
10
444
20
406.5
10
444
20
409.49999999999994
10
447
20
409.49999999999994
0
LWPOLYLINE
5
523
100
AcDbEntity
8
0
100
AcDbPolyline
90
4
70
1
43
0.0
10
459.5
20
406.5
10
456.5
20
406.5
10
456.5
20
409.49999999999994
10
459.5
20
409.49999999999994
0
LWPOLYLINE
5
524
100
AcDbEntity
8
0
100
AcDbPolyline
90
4
70
1
43
0.0
10
472
20
406.5
10
469
20
406.5
10
469
20
409.49999999999994
10
472
20
409.49999999999994
0
LWPOLYLINE
5
525
100
AcDbEntity
8
0
100
AcDbPolyline
90
4
70
1
43
0.0
10
484.5
20
406.5
10
481.5
20
406.5
10
481.5
20
409.49999999999994
10
484.5
20
409.49999999999994
0
LWPOLYLINE
5
526
100
AcDbEntity
8
0
100
AcDbPolyline
90
4
70
1
43
0.0
10
497
20
406.5
10
494
20
406.5
10
494
20
409.49999999999994
10
497
20
409.49999999999994
0
LWPOLYLINE
5
527
100
AcDbEntity
8
0
100
AcDbPolyline
90
4
70
1
43
0.0
10
509.5
20
406.5
10
506.5
20
406.5
10
506.5
20
409.49999999999994
10
509.5
20
409.49999999999994
0
LWPOLYLINE
5
528
100
AcDbEntity
8
0
100
AcDbPolyline
90
4
70
1
43
0.0
10
522
20
406.5
10
519
20
406.5
10
519
20
409.49999999999994
10
522
20
409.49999999999994
0
LWPOLYLINE
5
529
100
AcDbEntity
8
0
100
AcDbPolyline
90
4
70
1
43
0.0
10
534.5
20
406.5
10
531.5
20
406.5
10
531.5
20
409.49999999999994
10
534.5
20
409.49999999999994
0
LWPOLYLINE
5
530
100
AcDbEntity
8
0
100
AcDbPolyline
90
4
70
1
43
0.0
10
547
20
406.5
10
544
20
406.5
10
544
20
409.49999999999994
10
547
20
409.49999999999994
0
LWPOLYLINE
5
531
100
AcDbEntity
8
0
100
AcDbPolyline
90
4
70
1
43
0.0
10
22.000000000000036
20
356.5
10
19
20
356.5
10
19
20
359.49999999999994
10
22
20
359.49999999999994
0
LWPOLYLINE
5
532
100
AcDbEntity
8
0
100
AcDbPolyline
90
4
70
1
43
0.0
10
34.500000000000036
20
356.5
10
31.500000000000004
20
356.5
10
31.500000000000004
20
359.49999999999994
10
34.5
20
359.49999999999994
0
LWPOLYLINE
5
533
100
AcDbEntity
8
0
100
AcDbPolyline
90
4
70
1
43
0.0
10
47.000000000000036
20
356.5
10
44
20
356.5
10
44
20
359.49999999999994
10
47
20
359.49999999999994
0
LWPOLYLINE
5
534
100
AcDbEntity
8
0
100
AcDbPolyline
90
4
70
1
43
0.0
10
59.500000000000036
20
356.5
10
56.5
20
356.5
10
56.5
20
359.49999999999994
10
59.5
20
359.49999999999994
0
LWPOLYLINE
5
535
100
AcDbEntity
8
0
100
AcDbPolyline
90
4
70
1
43
0.0
10
72.000000000000043
20
356.5
10
69
20
356.5
10
69
20
359.49999999999994
10
72
20
359.49999999999994
0
LWPOLYLINE
5
536
100
AcDbEntity
8
0
100
AcDbPolyline
90
4
70
1
43
0.0
10
84.500000000000028
20
356.5
10
81.5
20
356.5
10
81.5
20
359.49999999999994
10
84.5
20
359.49999999999994
0
LWPOLYLINE
5
537
100
AcDbEntity
8
0
100
AcDbPolyline
90
4
70
1
43
0.0
10
97.000000000000028
20
356.5
10
94
20
356.5
10
94
20
359.49999999999994
10
97
20
359.49999999999994
0
LWPOLYLINE
5
538
100
AcDbEntity
8
0
100
AcDbPolyline
90
4
70
1
43
0.0
10
109.50000000000003
20
356.5
10
106.5
20
356.5
10
106.5
20
359.49999999999994
10
109.5
20
359.49999999999994
0
LWPOLYLINE
5
539
100
AcDbEntity
8
0
100
AcDbPolyline
90
4
70
1
43
0.0
10
122.00000000000003
20
356.5
10
119
20
356.5
10
119
20
359.49999999999994
10
122
20
359.49999999999994
0
LWPOLYLINE
5
540
100
AcDbEntity
8
0
100
AcDbPolyline
90
4
70
1
43
0.0
10
134.50000000000003
20
356.5
10
131.5
20
356.5
10
131.5
20
359.49999999999994
10
134.5
20
359.49999999999994
0
LWPOLYLINE
5
541
100
AcDbEntity
8
0
100
AcDbPolyline
90
4
70
1
43
0.0
10
147.00000000000003
20
356.5
10
144
20
356.5
10
144
20
359.49999999999994
10
147
20
359.49999999999994
0
LWPOLYLINE
5
542
100
AcDbEntity
8
0
100
AcDbPolyline
90
4
70
1
43
0.0
10
159.50000000000003
20
356.5
10
156.5
20
356.5
10
156.5
20
359.49999999999994
10
159.5
20
359.49999999999994
0
LWPOLYLINE
5
543
100
AcDbEntity
8
0
100
AcDbPolyline
90
4
70
1
43
0.0
10
172.00000000000003
20
356.5
10
169
20
356.5
10
169
20
359.49999999999994
10
172
20
359.49999999999994
0
LWPOLYLINE
5
544
100
AcDbEntity
8
0
100
AcDbPolyline
90
4
70
1
43
0.0
10
184.50000000000003
20
356.5
10
181.5
20
356.5
10
181.5
20
359.49999999999994
10
184.5
20
359.49999999999994
0
LWPOLYLINE
5
545
100
AcDbEntity
8
0
100
AcDbPolyline
90
4
70
1
43
0.0
10
197.00000000000003
20
356.5
10
194
20
356.5
10
194
20
359.49999999999994
10
197
20
359.49999999999994
0
LWPOLYLINE
5
546
100
AcDbEntity
8
0
100
AcDbPolyline
90
4
70
1
43
0.0
10
209.50000000000003
20
356.5
10
206.5
20
356.5
10
206.5
20
359.49999999999994
10
209.5
20
359.49999999999994
0
LWPOLYLINE
5
547
100
AcDbEntity
8
0
100
AcDbPolyline
90
4
70
1
43
0.0
10
222.00000000000003
20
356.5
10
219
20
356.5
10
219
20
359.49999999999994
10
222
20
359.49999999999994
0
LWPOLYLINE
5
548
100
AcDbEntity
8
0
100
AcDbPolyline
90
4
70
1
43
0.0
10
234.50000000000003
20
356.5
10
231.5
20
356.5
10
231.5
20
359.49999999999994
10
234.5
20
359.49999999999994
0
LWPOLYLINE
5
549
100
AcDbEntity
8
0
100
AcDbPolyline
90
4
70
1
43
0.0
10
247.00000000000003
20
356.5
10
244
20
356.5
10
244
20
359.49999999999994
10
247
20
359.49999999999994
0
LWPOLYLINE
5
550
100
AcDbEntity
8
0
100
AcDbPolyline
90
4
70
1
43
0.0
10
259.5
20
356.5
10
256.5
20
356.5
10
256.5
20
359.49999999999994
10
259.5
20
359.49999999999994
0
LWPOLYLINE
5
551
100
AcDbEntity
8
0
100
AcDbPolyline
90
4
70
1
43
0.0
10
272
20
356.5
10
269
20
356.5
10
269
20
359.49999999999994
10
272
20
359.49999999999994
0
LWPOLYLINE
5
552
100
AcDbEntity
8
0
100
AcDbPolyline
90
4
70
1
43
0.0
10
284.5
20
356.5
10
281.5
20
356.5
10
281.5
20
359.49999999999994
10
284.5
20
359.49999999999994
0
LWPOLYLINE
5
553
100
AcDbEntity
8
0
100
AcDbPolyline
90
4
70
1
43
0.0
10
297
20
356.5
10
294
20
356.5
10
294
20
359.49999999999994
10
297
20
359.49999999999994
0
LWPOLYLINE
5
554
100
AcDbEntity
8
0
100
AcDbPolyline
90
4
70
1
43
0.0
10
309.5
20
356.5
10
306.5
20
356.5
10
306.5
20
359.49999999999994
10
309.5
20
359.49999999999994
0
LWPOLYLINE
5
555
100
AcDbEntity
8
0
100
AcDbPolyline
90
4
70
1
43
0.0
10
322
20
356.5
10
319
20
356.5
10
319
20
359.49999999999994
10
322
20
359.49999999999994
0
LWPOLYLINE
5
556
100
AcDbEntity
8
0
100
AcDbPolyline
90
4
70
1
43
0.0
10
334.5
20
356.5
10
331.5
20
356.5
10
331.5
20
359.49999999999994
10
334.5
20
359.49999999999994
0
LWPOLYLINE
5
557
100
AcDbEntity
8
0
100
AcDbPolyline
90
4
70
1
43
0.0
10
347
20
356.5
10
344
20
356.5
10
344
20
359.49999999999994
10
347
20
359.49999999999994
0
LWPOLYLINE
5
558
100
AcDbEntity
8
0
100
AcDbPolyline
90
4
70
1
43
0.0
10
359.5
20
356.5
10
356.5
20
356.5
10
356.5
20
359.49999999999994
10
359.5
20
359.49999999999994
0
LWPOLYLINE
5
559
100
AcDbEntity
8
0
100
AcDbPolyline
90
4
70
1
43
0.0
10
372
20
356.5
10
369
20
356.5
10
369
20
359.49999999999994
10
372
20
359.49999999999994
0
LWPOLYLINE
5
560
100
AcDbEntity
8
0
100
AcDbPolyline
90
4
70
1
43
0.0
10
384.5
20
356.5
10
381.5
20
356.5
10
381.5
20
359.49999999999994
10
384.5
20
359.49999999999994
0
LWPOLYLINE
5
561
100
AcDbEntity
8
0
100
AcDbPolyline
90
4
70
1
43
0.0
10
397
20
356.5
10
394
20
356.5
10
394
20
359.49999999999994
10
397
20
359.49999999999994
0
LWPOLYLINE
5
562
100
AcDbEntity
8
0
100
AcDbPolyline
90
4
70
1
43
0.0
10
409.5
20
356.5
10
406.5
20
356.5
10
406.5
20
359.49999999999994
10
409.5
20
359.49999999999994
0
LWPOLYLINE
5
563
100
AcDbEntity
8
0
100
AcDbPolyline
90
4
70
1
43
0.0
10
422
20
356.5
10
419
20
356.5
10
419
20
359.49999999999994
10
422
20
359.49999999999994
0
LWPOLYLINE
5
564
100
AcDbEntity
8
0
100
AcDbPolyline
90
4
70
1
43
0.0
10
434.5
20
356.5
10
431.5
20
356.5
10
431.5
20
359.49999999999994
10
434.5
20
359.49999999999994
0
LWPOLYLINE
5
565
100
AcDbEntity
8
0
100
AcDbPolyline
90
4
70
1
43
0.0
10
447
20
356.5
10
444
20
356.5
10
444
20
359.49999999999994
10
447
20
359.49999999999994
0
LWPOLYLINE
5
566
100
AcDbEntity
8
0
100
AcDbPolyline
90
4
70
1
43
0.0
10
459.5
20
356.5
10
456.5
20
356.5
10
456.5
20
359.49999999999994
10
459.5
20
359.49999999999994
0
LWPOLYLINE
5
567
100
AcDbEntity
8
0
100
AcDbPolyline
90
4
70
1
43
0.0
10
472
20
356.5
10
469
20
356.5
10
469
20
359.49999999999994
10
472
20
359.49999999999994
0
LWPOLYLINE
5
568
100
AcDbEntity
8
0
100
AcDbPolyline
90
4
70
1
43
0.0
10
484.5
20
356.5
10
481.5
20
356.5
10
481.5
20
359.49999999999994
10
484.5
20
359.49999999999994
0
LWPOLYLINE
5
569
100
AcDbEntity
8
0
100
AcDbPolyline
90
4
70
1
43
0.0
10
497
20
356.5
10
494
20
356.5
10
494
20
359.49999999999994
10
497
20
359.49999999999994
0
LWPOLYLINE
5
570
100
AcDbEntity
8
0
100
AcDbPolyline
90
4
70
1
43
0.0
10
509.5
20
356.5
10
506.5
20
356.5
10
506.5
20
359.49999999999994
10
509.5
20
359.49999999999994
0
LWPOLYLINE
5
571
100
AcDbEntity
8
0
100
AcDbPolyline
90
4
70
1
43
0.0
10
522
20
356.5
10
519
20
356.5
10
519
20
359.49999999999994
10
522
20
359.49999999999994
0
LWPOLYLINE
5
572
100
AcDbEntity
8
0
100
AcDbPolyline
90
4
70
1
43
0.0
10
534.5
20
356.5
10
531.5
20
356.5
10
531.5
20
359.49999999999994
10
534.5
20
359.49999999999994
0
LWPOLYLINE
5
573
100
AcDbEntity
8
0
100
AcDbPolyline
90
4
70
1
43
0.0
10
547
20
356.5
10
544
20
356.5
10
544
20
359.49999999999994
10
547
20
359.49999999999994
0
LWPOLYLINE
5
574
100
AcDbEntity
8
0
100
AcDbPolyline
90
4
70
1
43
0.0
10
22.000000000000036
20
306.5
10
19
20
306.5
10
19
20
309.49999999999994
10
22
20
309.49999999999994
0
LWPOLYLINE
5
575
100
AcDbEntity
8
0
100
AcDbPolyline
90
4
70
1
43
0.0
10
34.500000000000036
20
306.5
10
31.500000000000004
20
306.5
10
31.500000000000004
20
309.49999999999994
10
34.5
20
309.49999999999994
0
LWPOLYLINE
5
576
100
AcDbEntity
8
0
100
AcDbPolyline
90
4
70
1
43
0.0
10
47.000000000000036
20
306.5
10
44
20
306.5
10
44
20
309.49999999999994
10
47
20
309.49999999999994
0
LWPOLYLINE
5
577
100
AcDbEntity
8
0
100
AcDbPolyline
90
4
70
1
43
0.0
10
59.500000000000036
20
306.5
10
56.5
20
306.5
10
56.5
20
309.49999999999994
10
59.5
20
309.49999999999994
0
LWPOLYLINE
5
578
100
AcDbEntity
8
0
100
AcDbPolyline
90
4
70
1
43
0.0
10
72.000000000000043
20
306.5
10
69
20
306.5
10
69
20
309.49999999999994
10
72
20
309.49999999999994
0
LWPOLYLINE
5
579
100
AcDbEntity
8
0
100
AcDbPolyline
90
4
70
1
43
0.0
10
84.500000000000028
20
306.5
10
81.5
20
306.5
10
81.5
20
309.49999999999994
10
84.5
20
309.49999999999994
0
LWPOLYLINE
5
580
100
AcDbEntity
8
0
100
AcDbPolyline
90
4
70
1
43
0.0
10
97.000000000000028
20
306.5
10
94
20
306.5
10
94
20
309.49999999999994
10
97
20
309.49999999999994
0
LWPOLYLINE
5
581
100
AcDbEntity
8
0
100
AcDbPolyline
90
4
70
1
43
0.0
10
109.50000000000003
20
306.5
10
106.5
20
306.5
10
106.5
20
309.49999999999994
10
109.5
20
309.49999999999994
0
LWPOLYLINE
5
582
100
AcDbEntity
8
0
100
AcDbPolyline
90
4
70
1
43
0.0
10
122.00000000000003
20
306.5
10
119
20
306.5
10
119
20
309.49999999999994
10
122
20
309.49999999999994
0
LWPOLYLINE
5
583
100
AcDbEntity
8
0
100
AcDbPolyline
90
4
70
1
43
0.0
10
134.50000000000003
20
306.5
10
131.5
20
306.5
10
131.5
20
309.49999999999994
10
134.5
20
309.49999999999994
0
LWPOLYLINE
5
584
100
AcDbEntity
8
0
100
AcDbPolyline
90
4
70
1
43
0.0
10
147.00000000000003
20
306.5
10
144
20
306.5
10
144
20
309.49999999999994
10
147
20
309.49999999999994
0
LWPOLYLINE
5
585
100
AcDbEntity
8
0
100
AcDbPolyline
90
4
70
1
43
0.0
10
159.50000000000003
20
306.5
10
156.5
20
306.5
10
156.5
20
309.49999999999994
10
159.5
20
309.49999999999994
0
LWPOLYLINE
5
586
100
AcDbEntity
8
0
100
AcDbPolyline
90
4
70
1
43
0.0
10
172.00000000000003
20
306.5
10
169
20
306.5
10
169
20
309.49999999999994
10
172
20
309.49999999999994
0
LWPOLYLINE
5
587
100
AcDbEntity
8
0
100
AcDbPolyline
90
4
70
1
43
0.0
10
184.50000000000003
20
306.5
10
181.5
20
306.5
10
181.5
20
309.49999999999994
10
184.5
20
309.49999999999994
0
LWPOLYLINE
5
588
100
AcDbEntity
8
0
100
AcDbPolyline
90
4
70
1
43
0.0
10
197.00000000000003
20
306.5
10
194
20
306.5
10
194
20
309.49999999999994
10
197
20
309.49999999999994
0
LWPOLYLINE
5
589
100
AcDbEntity
8
0
100
AcDbPolyline
90
4
70
1
43
0.0
10
209.50000000000003
20
306.5
10
206.5
20
306.5
10
206.5
20
309.49999999999994
10
209.5
20
309.49999999999994
0
LWPOLYLINE
5
590
100
AcDbEntity
8
0
100
AcDbPolyline
90
4
70
1
43
0.0
10
222.00000000000003
20
306.5
10
219
20
306.5
10
219
20
309.49999999999994
10
222
20
309.49999999999994
0
LWPOLYLINE
5
591
100
AcDbEntity
8
0
100
AcDbPolyline
90
4
70
1
43
0.0
10
234.50000000000003
20
306.5
10
231.5
20
306.5
10
231.5
20
309.49999999999994
10
234.5
20
309.49999999999994
0
LWPOLYLINE
5
592
100
AcDbEntity
8
0
100
AcDbPolyline
90
4
70
1
43
0.0
10
247.00000000000003
20
306.5
10
244
20
306.5
10
244
20
309.49999999999994
10
247
20
309.49999999999994
0
LWPOLYLINE
5
593
100
AcDbEntity
8
0
100
AcDbPolyline
90
4
70
1
43
0.0
10
259.5
20
306.5
10
256.5
20
306.5
10
256.5
20
309.49999999999994
10
259.5
20
309.49999999999994
0
LWPOLYLINE
5
594
100
AcDbEntity
8
0
100
AcDbPolyline
90
4
70
1
43
0.0
10
272
20
306.5
10
269
20
306.5
10
269
20
309.49999999999994
10
272
20
309.49999999999994
0
LWPOLYLINE
5
595
100
AcDbEntity
8
0
100
AcDbPolyline
90
4
70
1
43
0.0
10
284.5
20
306.5
10
281.5
20
306.5
10
281.5
20
309.49999999999994
10
284.5
20
309.49999999999994
0
LWPOLYLINE
5
596
100
AcDbEntity
8
0
100
AcDbPolyline
90
4
70
1
43
0.0
10
297
20
306.5
10
294
20
306.5
10
294
20
309.49999999999994
10
297
20
309.49999999999994
0
LWPOLYLINE
5
597
100
AcDbEntity
8
0
100
AcDbPolyline
90
4
70
1
43
0.0
10
309.5
20
306.5
10
306.5
20
306.5
10
306.5
20
309.49999999999994
10
309.5
20
309.49999999999994
0
LWPOLYLINE
5
598
100
AcDbEntity
8
0
100
AcDbPolyline
90
4
70
1
43
0.0
10
322
20
306.5
10
319
20
306.5
10
319
20
309.49999999999994
10
322
20
309.49999999999994
0
LWPOLYLINE
5
599
100
AcDbEntity
8
0
100
AcDbPolyline
90
4
70
1
43
0.0
10
334.5
20
306.5
10
331.5
20
306.5
10
331.5
20
309.49999999999994
10
334.5
20
309.49999999999994
0
LWPOLYLINE
5
600
100
AcDbEntity
8
0
100
AcDbPolyline
90
4
70
1
43
0.0
10
347
20
306.5
10
344
20
306.5
10
344
20
309.49999999999994
10
347
20
309.49999999999994
0
LWPOLYLINE
5
601
100
AcDbEntity
8
0
100
AcDbPolyline
90
4
70
1
43
0.0
10
359.5
20
306.5
10
356.5
20
306.5
10
356.5
20
309.49999999999994
10
359.5
20
309.49999999999994
0
LWPOLYLINE
5
602
100
AcDbEntity
8
0
100
AcDbPolyline
90
4
70
1
43
0.0
10
372
20
306.5
10
369
20
306.5
10
369
20
309.49999999999994
10
372
20
309.49999999999994
0
LWPOLYLINE
5
603
100
AcDbEntity
8
0
100
AcDbPolyline
90
4
70
1
43
0.0
10
384.5
20
306.5
10
381.5
20
306.5
10
381.5
20
309.49999999999994
10
384.5
20
309.49999999999994
0
LWPOLYLINE
5
604
100
AcDbEntity
8
0
100
AcDbPolyline
90
4
70
1
43
0.0
10
397
20
306.5
10
394
20
306.5
10
394
20
309.49999999999994
10
397
20
309.49999999999994
0
LWPOLYLINE
5
605
100
AcDbEntity
8
0
100
AcDbPolyline
90
4
70
1
43
0.0
10
409.5
20
306.5
10
406.5
20
306.5
10
406.5
20
309.49999999999994
10
409.5
20
309.49999999999994
0
LWPOLYLINE
5
606
100
AcDbEntity
8
0
100
AcDbPolyline
90
4
70
1
43
0.0
10
422
20
306.5
10
419
20
306.5
10
419
20
309.49999999999994
10
422
20
309.49999999999994
0
LWPOLYLINE
5
607
100
AcDbEntity
8
0
100
AcDbPolyline
90
4
70
1
43
0.0
10
434.5
20
306.5
10
431.5
20
306.5
10
431.5
20
309.49999999999994
10
434.5
20
309.49999999999994
0
LWPOLYLINE
5
608
100
AcDbEntity
8
0
100
AcDbPolyline
90
4
70
1
43
0.0
10
447
20
306.5
10
444
20
306.5
10
444
20
309.49999999999994
10
447
20
309.49999999999994
0
LWPOLYLINE
5
609
100
AcDbEntity
8
0
100
AcDbPolyline
90
4
70
1
43
0.0
10
459.5
20
306.5
10
456.5
20
306.5
10
456.5
20
309.49999999999994
10
459.5
20
309.49999999999994
0
LWPOLYLINE
5
610
100
AcDbEntity
8
0
100
AcDbPolyline
90
4
70
1
43
0.0
10
472
20
306.5
10
469
20
306.5
10
469
20
309.49999999999994
10
472
20
309.49999999999994
0
LWPOLYLINE
5
611
100
AcDbEntity
8
0
100
AcDbPolyline
90
4
70
1
43
0.0
10
484.5
20
306.5
10
481.5
20
306.5
10
481.5
20
309.49999999999994
10
484.5
20
309.49999999999994
0
LWPOLYLINE
5
612
100
AcDbEntity
8
0
100
AcDbPolyline
90
4
70
1
43
0.0
10
497
20
306.5
10
494
20
306.5
10
494
20
309.49999999999994
10
497
20
309.49999999999994
0
LWPOLYLINE
5
613
100
AcDbEntity
8
0
100
AcDbPolyline
90
4
70
1
43
0.0
10
509.5
20
306.5
10
506.5
20
306.5
10
506.5
20
309.49999999999994
10
509.5
20
309.49999999999994
0
LWPOLYLINE
5
614
100
AcDbEntity
8
0
100
AcDbPolyline
90
4
70
1
43
0.0
10
522
20
306.5
10
519
20
306.5
10
519
20
309.49999999999994
10
522
20
309.49999999999994
0
LWPOLYLINE
5
615
100
AcDbEntity
8
0
100
AcDbPolyline
90
4
70
1
43
0.0
10
534.5
20
306.5
10
531.5
20
306.5
10
531.5
20
309.49999999999994
10
534.5
20
309.49999999999994
0
LWPOLYLINE
5
616
100
AcDbEntity
8
0
100
AcDbPolyline
90
4
70
1
43
0.0
10
547
20
306.5
10
544
20
306.5
10
544
20
309.49999999999994
10
547
20
309.49999999999994
0
LWPOLYLINE
5
617
100
AcDbEntity
8
0
100
AcDbPolyline
90
4
70
1
43
0.0
10
22.000000000000036
20
256.5
10
19
20
256.5
10
19
20
259.49999999999994
10
22
20
259.49999999999994
0
LWPOLYLINE
5
618
100
AcDbEntity
8
0
100
AcDbPolyline
90
4
70
1
43
0.0
10
34.500000000000036
20
256.5
10
31.500000000000004
20
256.5
10
31.500000000000004
20
259.49999999999994
10
34.5
20
259.49999999999994
0
LWPOLYLINE
5
619
100
AcDbEntity
8
0
100
AcDbPolyline
90
4
70
1
43
0.0
10
47.000000000000036
20
256.5
10
44
20
256.5
10
44
20
259.49999999999994
10
47
20
259.49999999999994
0
LWPOLYLINE
5
620
100
AcDbEntity
8
0
100
AcDbPolyline
90
4
70
1
43
0.0
10
59.500000000000036
20
256.5
10
56.5
20
256.5
10
56.5
20
259.49999999999994
10
59.5
20
259.49999999999994
0
LWPOLYLINE
5
621
100
AcDbEntity
8
0
100
AcDbPolyline
90
4
70
1
43
0.0
10
72.000000000000043
20
256.5
10
69
20
256.5
10
69
20
259.49999999999994
10
72
20
259.49999999999994
0
LWPOLYLINE
5
622
100
AcDbEntity
8
0
100
AcDbPolyline
90
4
70
1
43
0.0
10
84.500000000000028
20
256.5
10
81.5
20
256.5
10
81.5
20
259.49999999999994
10
84.5
20
259.49999999999994
0
LWPOLYLINE
5
623
100
AcDbEntity
8
0
100
AcDbPolyline
90
4
70
1
43
0.0
10
97.000000000000028
20
256.5
10
94
20
256.5
10
94
20
259.49999999999994
10
97
20
259.49999999999994
0
LWPOLYLINE
5
624
100
AcDbEntity
8
0
100
AcDbPolyline
90
4
70
1
43
0.0
10
109.50000000000003
20
256.5
10
106.5
20
256.5
10
106.5
20
259.49999999999994
10
109.5
20
259.49999999999994
0
LWPOLYLINE
5
625
100
AcDbEntity
8
0
100
AcDbPolyline
90
4
70
1
43
0.0
10
122.00000000000003
20
256.5
10
119
20
256.5
10
119
20
259.49999999999994
10
122
20
259.49999999999994
0
LWPOLYLINE
5
626
100
AcDbEntity
8
0
100
AcDbPolyline
90
4
70
1
43
0.0
10
134.50000000000003
20
256.5
10
131.5
20
256.5
10
131.5
20
259.49999999999994
10
134.5
20
259.49999999999994
0
LWPOLYLINE
5
627
100
AcDbEntity
8
0
100
AcDbPolyline
90
4
70
1
43
0.0
10
147.00000000000003
20
256.5
10
144
20
256.5
10
144
20
259.49999999999994
10
147
20
259.49999999999994
0
LWPOLYLINE
5
628
100
AcDbEntity
8
0
100
AcDbPolyline
90
4
70
1
43
0.0
10
159.50000000000003
20
256.5
10
156.5
20
256.5
10
156.5
20
259.49999999999994
10
159.5
20
259.49999999999994
0
LWPOLYLINE
5
629
100
AcDbEntity
8
0
100
AcDbPolyline
90
4
70
1
43
0.0
10
172.00000000000003
20
256.5
10
169
20
256.5
10
169
20
259.49999999999994
10
172
20
259.49999999999994
0
LWPOLYLINE
5
630
100
AcDbEntity
8
0
100
AcDbPolyline
90
4
70
1
43
0.0
10
184.50000000000003
20
256.5
10
181.5
20
256.5
10
181.5
20
259.49999999999994
10
184.5
20
259.49999999999994
0
LWPOLYLINE
5
631
100
AcDbEntity
8
0
100
AcDbPolyline
90
4
70
1
43
0.0
10
197.00000000000003
20
256.5
10
194
20
256.5
10
194
20
259.49999999999994
10
197
20
259.49999999999994
0
LWPOLYLINE
5
632
100
AcDbEntity
8
0
100
AcDbPolyline
90
4
70
1
43
0.0
10
209.50000000000003
20
256.5
10
206.5
20
256.5
10
206.5
20
259.49999999999994
10
209.5
20
259.49999999999994
0
LWPOLYLINE
5
633
100
AcDbEntity
8
0
100
AcDbPolyline
90
4
70
1
43
0.0
10
222.00000000000003
20
256.5
10
219
20
256.5
10
219
20
259.49999999999994
10
222
20
259.49999999999994
0
LWPOLYLINE
5
634
100
AcDbEntity
8
0
100
AcDbPolyline
90
4
70
1
43
0.0
10
234.50000000000003
20
256.5
10
231.5
20
256.5
10
231.5
20
259.49999999999994
10
234.5
20
259.49999999999994
0
LWPOLYLINE
5
635
100
AcDbEntity
8
0
100
AcDbPolyline
90
4
70
1
43
0.0
10
247.00000000000003
20
256.5
10
244
20
256.5
10
244
20
259.49999999999994
10
247
20
259.49999999999994
0
LWPOLYLINE
5
636
100
AcDbEntity
8
0
100
AcDbPolyline
90
4
70
1
43
0.0
10
259.5
20
256.5
10
256.5
20
256.5
10
256.5
20
259.49999999999994
10
259.5
20
259.49999999999994
0
LWPOLYLINE
5
637
100
AcDbEntity
8
0
100
AcDbPolyline
90
4
70
1
43
0.0
10
272
20
256.5
10
269
20
256.5
10
269
20
259.49999999999994
10
272
20
259.49999999999994
0
LWPOLYLINE
5
638
100
AcDbEntity
8
0
100
AcDbPolyline
90
4
70
1
43
0.0
10
284.5
20
256.5
10
281.5
20
256.5
10
281.5
20
259.49999999999994
10
284.5
20
259.49999999999994
0
LWPOLYLINE
5
639
100
AcDbEntity
8
0
100
AcDbPolyline
90
4
70
1
43
0.0
10
297
20
256.5
10
294
20
256.5
10
294
20
259.49999999999994
10
297
20
259.49999999999994
0
LWPOLYLINE
5
640
100
AcDbEntity
8
0
100
AcDbPolyline
90
4
70
1
43
0.0
10
309.5
20
256.5
10
306.5
20
256.5
10
306.5
20
259.49999999999994
10
309.5
20
259.49999999999994
0
LWPOLYLINE
5
641
100
AcDbEntity
8
0
100
AcDbPolyline
90
4
70
1
43
0.0
10
322
20
256.5
10
319
20
256.5
10
319
20
259.49999999999994
10
322
20
259.49999999999994
0
LWPOLYLINE
5
642
100
AcDbEntity
8
0
100
AcDbPolyline
90
4
70
1
43
0.0
10
334.5
20
256.5
10
331.5
20
256.5
10
331.5
20
259.49999999999994
10
334.5
20
259.49999999999994
0
LWPOLYLINE
5
643
100
AcDbEntity
8
0
100
AcDbPolyline
90
4
70
1
43
0.0
10
347
20
256.5
10
344
20
256.5
10
344
20
259.49999999999994
10
347
20
259.49999999999994
0
LWPOLYLINE
5
644
100
AcDbEntity
8
0
100
AcDbPolyline
90
4
70
1
43
0.0
10
359.5
20
256.5
10
356.5
20
256.5
10
356.5
20
259.49999999999994
10
359.5
20
259.49999999999994
0
LWPOLYLINE
5
645
100
AcDbEntity
8
0
100
AcDbPolyline
90
4
70
1
43
0.0
10
372
20
256.5
10
369
20
256.5
10
369
20
259.49999999999994
10
372
20
259.49999999999994
0
LWPOLYLINE
5
646
100
AcDbEntity
8
0
100
AcDbPolyline
90
4
70
1
43
0.0
10
384.5
20
256.5
10
381.5
20
256.5
10
381.5
20
259.49999999999994
10
384.5
20
259.49999999999994
0
LWPOLYLINE
5
647
100
AcDbEntity
8
0
100
AcDbPolyline
90
4
70
1
43
0.0
10
397
20
256.5
10
394
20
256.5
10
394
20
259.49999999999994
10
397
20
259.49999999999994
0
LWPOLYLINE
5
648
100
AcDbEntity
8
0
100
AcDbPolyline
90
4
70
1
43
0.0
10
409.5
20
256.5
10
406.5
20
256.5
10
406.5
20
259.49999999999994
10
409.5
20
259.49999999999994
0
LWPOLYLINE
5
649
100
AcDbEntity
8
0
100
AcDbPolyline
90
4
70
1
43
0.0
10
422
20
256.5
10
419
20
256.5
10
419
20
259.49999999999994
10
422
20
259.49999999999994
0
LWPOLYLINE
5
650
100
AcDbEntity
8
0
100
AcDbPolyline
90
4
70
1
43
0.0
10
434.5
20
256.5
10
431.5
20
256.5
10
431.5
20
259.49999999999994
10
434.5
20
259.49999999999994
0
LWPOLYLINE
5
651
100
AcDbEntity
8
0
100
AcDbPolyline
90
4
70
1
43
0.0
10
447
20
256.5
10
444
20
256.5
10
444
20
259.49999999999994
10
447
20
259.49999999999994
0
LWPOLYLINE
5
652
100
AcDbEntity
8
0
100
AcDbPolyline
90
4
70
1
43
0.0
10
459.5
20
256.5
10
456.5
20
256.5
10
456.5
20
259.49999999999994
10
459.5
20
259.49999999999994
0
LWPOLYLINE
5
653
100
AcDbEntity
8
0
100
AcDbPolyline
90
4
70
1
43
0.0
10
472
20
256.5
10
469
20
256.5
10
469
20
259.49999999999994
10
472
20
259.49999999999994
0
LWPOLYLINE
5
654
100
AcDbEntity
8
0
100
AcDbPolyline
90
4
70
1
43
0.0
10
484.5
20
256.5
10
481.5
20
256.5
10
481.5
20
259.49999999999994
10
484.5
20
259.49999999999994
0
LWPOLYLINE
5
655
100
AcDbEntity
8
0
100
AcDbPolyline
90
4
70
1
43
0.0
10
497
20
256.5
10
494
20
256.5
10
494
20
259.49999999999994
10
497
20
259.49999999999994
0
LWPOLYLINE
5
656
100
AcDbEntity
8
0
100
AcDbPolyline
90
4
70
1
43
0.0
10
509.5
20
256.5
10
506.5
20
256.5
10
506.5
20
259.49999999999994
10
509.5
20
259.49999999999994
0
LWPOLYLINE
5
657
100
AcDbEntity
8
0
100
AcDbPolyline
90
4
70
1
43
0.0
10
522
20
256.5
10
519
20
256.5
10
519
20
259.49999999999994
10
522
20
259.49999999999994
0
LWPOLYLINE
5
658
100
AcDbEntity
8
0
100
AcDbPolyline
90
4
70
1
43
0.0
10
534.5
20
256.5
10
531.5
20
256.5
10
531.5
20
259.49999999999994
10
534.5
20
259.49999999999994
0
LWPOLYLINE
5
659
100
AcDbEntity
8
0
100
AcDbPolyline
90
4
70
1
43
0.0
10
547
20
256.5
10
544
20
256.5
10
544
20
259.49999999999994
10
547
20
259.49999999999994
0
LWPOLYLINE
5
660
100
AcDbEntity
8
0
100
AcDbPolyline
90
4
70
1
43
0.0
10
22.000000000000036
20
206.5
10
19
20
206.5
10
19
20
209.49999999999994
10
22
20
209.49999999999994
0
LWPOLYLINE
5
661
100
AcDbEntity
8
0
100
AcDbPolyline
90
4
70
1
43
0.0
10
34.500000000000036
20
206.5
10
31.500000000000004
20
206.5
10
31.500000000000004
20
209.49999999999994
10
34.5
20
209.49999999999994
0
LWPOLYLINE
5
662
100
AcDbEntity
8
0
100
AcDbPolyline
90
4
70
1
43
0.0
10
47.000000000000036
20
206.5
10
44
20
206.5
10
44
20
209.49999999999994
10
47
20
209.49999999999994
0
LWPOLYLINE
5
663
100
AcDbEntity
8
0
100
AcDbPolyline
90
4
70
1
43
0.0
10
59.500000000000036
20
206.5
10
56.5
20
206.5
10
56.5
20
209.49999999999994
10
59.5
20
209.49999999999994
0
LWPOLYLINE
5
664
100
AcDbEntity
8
0
100
AcDbPolyline
90
4
70
1
43
0.0
10
72.000000000000043
20
206.5
10
69
20
206.5
10
69
20
209.49999999999994
10
72
20
209.49999999999994
0
LWPOLYLINE
5
665
100
AcDbEntity
8
0
100
AcDbPolyline
90
4
70
1
43
0.0
10
84.500000000000028
20
206.5
10
81.5
20
206.5
10
81.5
20
209.49999999999994
10
84.5
20
209.49999999999994
0
LWPOLYLINE
5
666
100
AcDbEntity
8
0
100
AcDbPolyline
90
4
70
1
43
0.0
10
97.000000000000028
20
206.5
10
94
20
206.5
10
94
20
209.49999999999994
10
97
20
209.49999999999994
0
LWPOLYLINE
5
667
100
AcDbEntity
8
0
100
AcDbPolyline
90
4
70
1
43
0.0
10
109.50000000000003
20
206.5
10
106.5
20
206.5
10
106.5
20
209.49999999999994
10
109.5
20
209.49999999999994
0
LWPOLYLINE
5
668
100
AcDbEntity
8
0
100
AcDbPolyline
90
4
70
1
43
0.0
10
122.00000000000003
20
206.5
10
119
20
206.5
10
119
20
209.49999999999994
10
122
20
209.49999999999994
0
LWPOLYLINE
5
669
100
AcDbEntity
8
0
100
AcDbPolyline
90
4
70
1
43
0.0
10
134.50000000000003
20
206.5
10
131.5
20
206.5
10
131.5
20
209.49999999999994
10
134.5
20
209.49999999999994
0
LWPOLYLINE
5
670
100
AcDbEntity
8
0
100
AcDbPolyline
90
4
70
1
43
0.0
10
147.00000000000003
20
206.5
10
144
20
206.5
10
144
20
209.49999999999994
10
147
20
209.49999999999994
0
LWPOLYLINE
5
671
100
AcDbEntity
8
0
100
AcDbPolyline
90
4
70
1
43
0.0
10
159.50000000000003
20
206.5
10
156.5
20
206.5
10
156.5
20
209.49999999999994
10
159.5
20
209.49999999999994
0
LWPOLYLINE
5
672
100
AcDbEntity
8
0
100
AcDbPolyline
90
4
70
1
43
0.0
10
172.00000000000003
20
206.5
10
169
20
206.5
10
169
20
209.49999999999994
10
172
20
209.49999999999994
0
LWPOLYLINE
5
673
100
AcDbEntity
8
0
100
AcDbPolyline
90
4
70
1
43
0.0
10
184.50000000000003
20
206.5
10
181.5
20
206.5
10
181.5
20
209.49999999999994
10
184.5
20
209.49999999999994
0
LWPOLYLINE
5
674
100
AcDbEntity
8
0
100
AcDbPolyline
90
4
70
1
43
0.0
10
197.00000000000003
20
206.5
10
194
20
206.5
10
194
20
209.49999999999994
10
197
20
209.49999999999994
0
LWPOLYLINE
5
675
100
AcDbEntity
8
0
100
AcDbPolyline
90
4
70
1
43
0.0
10
209.50000000000003
20
206.5
10
206.5
20
206.5
10
206.5
20
209.49999999999994
10
209.5
20
209.49999999999994
0
LWPOLYLINE
5
676
100
AcDbEntity
8
0
100
AcDbPolyline
90
4
70
1
43
0.0
10
222.00000000000003
20
206.5
10
219
20
206.5
10
219
20
209.49999999999994
10
222
20
209.49999999999994
0
LWPOLYLINE
5
677
100
AcDbEntity
8
0
100
AcDbPolyline
90
4
70
1
43
0.0
10
234.50000000000003
20
206.5
10
231.5
20
206.5
10
231.5
20
209.49999999999994
10
234.5
20
209.49999999999994
0
LWPOLYLINE
5
678
100
AcDbEntity
8
0
100
AcDbPolyline
90
4
70
1
43
0.0
10
247.00000000000003
20
206.5
10
244
20
206.5
10
244
20
209.49999999999994
10
247
20
209.49999999999994
0
LWPOLYLINE
5
679
100
AcDbEntity
8
0
100
AcDbPolyline
90
4
70
1
43
0.0
10
259.5
20
206.5
10
256.5
20
206.5
10
256.5
20
209.49999999999994
10
259.5
20
209.49999999999994
0
LWPOLYLINE
5
680
100
AcDbEntity
8
0
100
AcDbPolyline
90
4
70
1
43
0.0
10
272
20
206.5
10
269
20
206.5
10
269
20
209.49999999999994
10
272
20
209.49999999999994
0
LWPOLYLINE
5
681
100
AcDbEntity
8
0
100
AcDbPolyline
90
4
70
1
43
0.0
10
284.5
20
206.5
10
281.5
20
206.5
10
281.5
20
209.49999999999994
10
284.5
20
209.49999999999994
0
LWPOLYLINE
5
682
100
AcDbEntity
8
0
100
AcDbPolyline
90
4
70
1
43
0.0
10
297
20
206.5
10
294
20
206.5
10
294
20
209.49999999999994
10
297
20
209.49999999999994
0
LWPOLYLINE
5
683
100
AcDbEntity
8
0
100
AcDbPolyline
90
4
70
1
43
0.0
10
309.5
20
206.5
10
306.5
20
206.5
10
306.5
20
209.49999999999994
10
309.5
20
209.49999999999994
0
LWPOLYLINE
5
684
100
AcDbEntity
8
0
100
AcDbPolyline
90
4
70
1
43
0.0
10
322
20
206.5
10
319
20
206.5
10
319
20
209.49999999999994
10
322
20
209.49999999999994
0
LWPOLYLINE
5
685
100
AcDbEntity
8
0
100
AcDbPolyline
90
4
70
1
43
0.0
10
334.5
20
206.5
10
331.5
20
206.5
10
331.5
20
209.49999999999994
10
334.5
20
209.49999999999994
0
LWPOLYLINE
5
686
100
AcDbEntity
8
0
100
AcDbPolyline
90
4
70
1
43
0.0
10
347
20
206.5
10
344
20
206.5
10
344
20
209.49999999999994
10
347
20
209.49999999999994
0
LWPOLYLINE
5
687
100
AcDbEntity
8
0
100
AcDbPolyline
90
4
70
1
43
0.0
10
359.5
20
206.5
10
356.5
20
206.5
10
356.5
20
209.49999999999994
10
359.5
20
209.49999999999994
0
LWPOLYLINE
5
688
100
AcDbEntity
8
0
100
AcDbPolyline
90
4
70
1
43
0.0
10
372
20
206.5
10
369
20
206.5
10
369
20
209.49999999999994
10
372
20
209.49999999999994
0
LWPOLYLINE
5
689
100
AcDbEntity
8
0
100
AcDbPolyline
90
4
70
1
43
0.0
10
384.5
20
206.5
10
381.5
20
206.5
10
381.5
20
209.49999999999994
10
384.5
20
209.49999999999994
0
LWPOLYLINE
5
690
100
AcDbEntity
8
0
100
AcDbPolyline
90
4
70
1
43
0.0
10
397
20
206.5
10
394
20
206.5
10
394
20
209.49999999999994
10
397
20
209.49999999999994
0
LWPOLYLINE
5
691
100
AcDbEntity
8
0
100
AcDbPolyline
90
4
70
1
43
0.0
10
409.5
20
206.5
10
406.5
20
206.5
10
406.5
20
209.49999999999994
10
409.5
20
209.49999999999994
0
LWPOLYLINE
5
692
100
AcDbEntity
8
0
100
AcDbPolyline
90
4
70
1
43
0.0
10
422
20
206.5
10
419
20
206.5
10
419
20
209.49999999999994
10
422
20
209.49999999999994
0
LWPOLYLINE
5
693
100
AcDbEntity
8
0
100
AcDbPolyline
90
4
70
1
43
0.0
10
434.5
20
206.5
10
431.5
20
206.5
10
431.5
20
209.49999999999994
10
434.5
20
209.49999999999994
0
LWPOLYLINE
5
694
100
AcDbEntity
8
0
100
AcDbPolyline
90
4
70
1
43
0.0
10
447
20
206.5
10
444
20
206.5
10
444
20
209.49999999999994
10
447
20
209.49999999999994
0
LWPOLYLINE
5
695
100
AcDbEntity
8
0
100
AcDbPolyline
90
4
70
1
43
0.0
10
459.5
20
206.5
10
456.5
20
206.5
10
456.5
20
209.49999999999994
10
459.5
20
209.49999999999994
0
LWPOLYLINE
5
696
100
AcDbEntity
8
0
100
AcDbPolyline
90
4
70
1
43
0.0
10
472
20
206.5
10
469
20
206.5
10
469
20
209.49999999999994
10
472
20
209.49999999999994
0
LWPOLYLINE
5
697
100
AcDbEntity
8
0
100
AcDbPolyline
90
4
70
1
43
0.0
10
484.5
20
206.5
10
481.5
20
206.5
10
481.5
20
209.49999999999994
10
484.5
20
209.49999999999994
0
LWPOLYLINE
5
698
100
AcDbEntity
8
0
100
AcDbPolyline
90
4
70
1
43
0.0
10
497
20
206.5
10
494
20
206.5
10
494
20
209.49999999999994
10
497
20
209.49999999999994
0
LWPOLYLINE
5
699
100
AcDbEntity
8
0
100
AcDbPolyline
90
4
70
1
43
0.0
10
509.5
20
206.5
10
506.5
20
206.5
10
506.5
20
209.49999999999994
10
509.5
20
209.49999999999994
0
LWPOLYLINE
5
700
100
AcDbEntity
8
0
100
AcDbPolyline
90
4
70
1
43
0.0
10
522
20
206.5
10
519
20
206.5
10
519
20
209.49999999999994
10
522
20
209.49999999999994
0
LWPOLYLINE
5
701
100
AcDbEntity
8
0
100
AcDbPolyline
90
4
70
1
43
0.0
10
534.5
20
206.5
10
531.5
20
206.5
10
531.5
20
209.49999999999994
10
534.5
20
209.49999999999994
0
LWPOLYLINE
5
702
100
AcDbEntity
8
0
100
AcDbPolyline
90
4
70
1
43
0.0
10
547
20
206.5
10
544
20
206.5
10
544
20
209.49999999999994
10
547
20
209.49999999999994
0
LWPOLYLINE
5
703
100
AcDbEntity
8
0
100
AcDbPolyline
90
4
70
1
43
0.0
10
22.000000000000036
20
156.5
10
19
20
156.5
10
19
20
159.49999999999994
10
22
20
159.49999999999994
0
LWPOLYLINE
5
704
100
AcDbEntity
8
0
100
AcDbPolyline
90
4
70
1
43
0.0
10
34.500000000000036
20
156.5
10
31.500000000000004
20
156.5
10
31.500000000000004
20
159.49999999999994
10
34.5
20
159.49999999999994
0
LWPOLYLINE
5
705
100
AcDbEntity
8
0
100
AcDbPolyline
90
4
70
1
43
0.0
10
47.000000000000036
20
156.5
10
44
20
156.5
10
44
20
159.49999999999994
10
47
20
159.49999999999994
0
LWPOLYLINE
5
706
100
AcDbEntity
8
0
100
AcDbPolyline
90
4
70
1
43
0.0
10
59.500000000000036
20
156.5
10
56.5
20
156.5
10
56.5
20
159.49999999999994
10
59.5
20
159.49999999999994
0
LWPOLYLINE
5
707
100
AcDbEntity
8
0
100
AcDbPolyline
90
4
70
1
43
0.0
10
72.000000000000043
20
156.5
10
69
20
156.5
10
69
20
159.49999999999994
10
72
20
159.49999999999994
0
LWPOLYLINE
5
708
100
AcDbEntity
8
0
100
AcDbPolyline
90
4
70
1
43
0.0
10
84.500000000000028
20
156.5
10
81.5
20
156.5
10
81.5
20
159.49999999999994
10
84.5
20
159.49999999999994
0
LWPOLYLINE
5
709
100
AcDbEntity
8
0
100
AcDbPolyline
90
4
70
1
43
0.0
10
97.000000000000028
20
156.5
10
94
20
156.5
10
94
20
159.49999999999994
10
97
20
159.49999999999994
0
LWPOLYLINE
5
710
100
AcDbEntity
8
0
100
AcDbPolyline
90
4
70
1
43
0.0
10
109.50000000000003
20
156.5
10
106.5
20
156.5
10
106.5
20
159.49999999999994
10
109.5
20
159.49999999999994
0
LWPOLYLINE
5
711
100
AcDbEntity
8
0
100
AcDbPolyline
90
4
70
1
43
0.0
10
122.00000000000003
20
156.5
10
119
20
156.5
10
119
20
159.49999999999994
10
122
20
159.49999999999994
0
LWPOLYLINE
5
712
100
AcDbEntity
8
0
100
AcDbPolyline
90
4
70
1
43
0.0
10
134.50000000000003
20
156.5
10
131.5
20
156.5
10
131.5
20
159.49999999999994
10
134.5
20
159.49999999999994
0
LWPOLYLINE
5
713
100
AcDbEntity
8
0
100
AcDbPolyline
90
4
70
1
43
0.0
10
147.00000000000003
20
156.5
10
144
20
156.5
10
144
20
159.49999999999994
10
147
20
159.49999999999994
0
LWPOLYLINE
5
714
100
AcDbEntity
8
0
100
AcDbPolyline
90
4
70
1
43
0.0
10
159.50000000000003
20
156.5
10
156.5
20
156.5
10
156.5
20
159.49999999999994
10
159.5
20
159.49999999999994
0
LWPOLYLINE
5
715
100
AcDbEntity
8
0
100
AcDbPolyline
90
4
70
1
43
0.0
10
172.00000000000003
20
156.5
10
169
20
156.5
10
169
20
159.49999999999994
10
172
20
159.49999999999994
0
LWPOLYLINE
5
716
100
AcDbEntity
8
0
100
AcDbPolyline
90
4
70
1
43
0.0
10
184.50000000000003
20
156.5
10
181.5
20
156.5
10
181.5
20
159.49999999999994
10
184.5
20
159.49999999999994
0
LWPOLYLINE
5
717
100
AcDbEntity
8
0
100
AcDbPolyline
90
4
70
1
43
0.0
10
197.00000000000003
20
156.5
10
194
20
156.5
10
194
20
159.49999999999994
10
197
20
159.49999999999994
0
LWPOLYLINE
5
718
100
AcDbEntity
8
0
100
AcDbPolyline
90
4
70
1
43
0.0
10
209.50000000000003
20
156.5
10
206.5
20
156.5
10
206.5
20
159.49999999999994
10
209.5
20
159.49999999999994
0
LWPOLYLINE
5
719
100
AcDbEntity
8
0
100
AcDbPolyline
90
4
70
1
43
0.0
10
222.00000000000003
20
156.5
10
219
20
156.5
10
219
20
159.49999999999994
10
222
20
159.49999999999994
0
LWPOLYLINE
5
720
100
AcDbEntity
8
0
100
AcDbPolyline
90
4
70
1
43
0.0
10
234.50000000000003
20
156.5
10
231.5
20
156.5
10
231.5
20
159.49999999999994
10
234.5
20
159.49999999999994
0
LWPOLYLINE
5
721
100
AcDbEntity
8
0
100
AcDbPolyline
90
4
70
1
43
0.0
10
247.00000000000003
20
156.5
10
244
20
156.5
10
244
20
159.49999999999994
10
247
20
159.49999999999994
0
LWPOLYLINE
5
722
100
AcDbEntity
8
0
100
AcDbPolyline
90
4
70
1
43
0.0
10
259.5
20
156.5
10
256.5
20
156.5
10
256.5
20
159.49999999999994
10
259.5
20
159.49999999999994
0
LWPOLYLINE
5
723
100
AcDbEntity
8
0
100
AcDbPolyline
90
4
70
1
43
0.0
10
272
20
156.5
10
269
20
156.5
10
269
20
159.49999999999994
10
272
20
159.49999999999994
0
LWPOLYLINE
5
724
100
AcDbEntity
8
0
100
AcDbPolyline
90
4
70
1
43
0.0
10
284.5
20
156.5
10
281.5
20
156.5
10
281.5
20
159.49999999999994
10
284.5
20
159.49999999999994
0
LWPOLYLINE
5
725
100
AcDbEntity
8
0
100
AcDbPolyline
90
4
70
1
43
0.0
10
297
20
156.5
10
294
20
156.5
10
294
20
159.49999999999994
10
297
20
159.49999999999994
0
LWPOLYLINE
5
726
100
AcDbEntity
8
0
100
AcDbPolyline
90
4
70
1
43
0.0
10
309.5
20
156.5
10
306.5
20
156.5
10
306.5
20
159.49999999999994
10
309.5
20
159.49999999999994
0
LWPOLYLINE
5
727
100
AcDbEntity
8
0
100
AcDbPolyline
90
4
70
1
43
0.0
10
322
20
156.5
10
319
20
156.5
10
319
20
159.49999999999994
10
322
20
159.49999999999994
0
LWPOLYLINE
5
728
100
AcDbEntity
8
0
100
AcDbPolyline
90
4
70
1
43
0.0
10
334.5
20
156.5
10
331.5
20
156.5
10
331.5
20
159.49999999999994
10
334.5
20
159.49999999999994
0
LWPOLYLINE
5
729
100
AcDbEntity
8
0
100
AcDbPolyline
90
4
70
1
43
0.0
10
347
20
156.5
10
344
20
156.5
10
344
20
159.49999999999994
10
347
20
159.49999999999994
0
LWPOLYLINE
5
730
100
AcDbEntity
8
0
100
AcDbPolyline
90
4
70
1
43
0.0
10
359.5
20
156.5
10
356.5
20
156.5
10
356.5
20
159.49999999999994
10
359.5
20
159.49999999999994
0
LWPOLYLINE
5
731
100
AcDbEntity
8
0
100
AcDbPolyline
90
4
70
1
43
0.0
10
372
20
156.5
10
369
20
156.5
10
369
20
159.49999999999994
10
372
20
159.49999999999994
0
LWPOLYLINE
5
732
100
AcDbEntity
8
0
100
AcDbPolyline
90
4
70
1
43
0.0
10
384.5
20
156.5
10
381.5
20
156.5
10
381.5
20
159.49999999999994
10
384.5
20
159.49999999999994
0
LWPOLYLINE
5
733
100
AcDbEntity
8
0
100
AcDbPolyline
90
4
70
1
43
0.0
10
397
20
156.5
10
394
20
156.5
10
394
20
159.49999999999994
10
397
20
159.49999999999994
0
LWPOLYLINE
5
734
100
AcDbEntity
8
0
100
AcDbPolyline
90
4
70
1
43
0.0
10
409.5
20
156.5
10
406.5
20
156.5
10
406.5
20
159.49999999999994
10
409.5
20
159.49999999999994
0
LWPOLYLINE
5
735
100
AcDbEntity
8
0
100
AcDbPolyline
90
4
70
1
43
0.0
10
422
20
156.5
10
419
20
156.5
10
419
20
159.49999999999994
10
422
20
159.49999999999994
0
LWPOLYLINE
5
736
100
AcDbEntity
8
0
100
AcDbPolyline
90
4
70
1
43
0.0
10
434.5
20
156.5
10
431.5
20
156.5
10
431.5
20
159.49999999999994
10
434.5
20
159.49999999999994
0
LWPOLYLINE
5
737
100
AcDbEntity
8
0
100
AcDbPolyline
90
4
70
1
43
0.0
10
447
20
156.5
10
444
20
156.5
10
444
20
159.49999999999994
10
447
20
159.49999999999994
0
LWPOLYLINE
5
738
100
AcDbEntity
8
0
100
AcDbPolyline
90
4
70
1
43
0.0
10
459.5
20
156.5
10
456.5
20
156.5
10
456.5
20
159.49999999999994
10
459.5
20
159.49999999999994
0
LWPOLYLINE
5
739
100
AcDbEntity
8
0
100
AcDbPolyline
90
4
70
1
43
0.0
10
472
20
156.5
10
469
20
156.5
10
469
20
159.49999999999994
10
472
20
159.49999999999994
0
LWPOLYLINE
5
740
100
AcDbEntity
8
0
100
AcDbPolyline
90
4
70
1
43
0.0
10
484.5
20
156.5
10
481.5
20
156.5
10
481.5
20
159.49999999999994
10
484.5
20
159.49999999999994
0
LWPOLYLINE
5
741
100
AcDbEntity
8
0
100
AcDbPolyline
90
4
70
1
43
0.0
10
497
20
156.5
10
494
20
156.5
10
494
20
159.49999999999994
10
497
20
159.49999999999994
0
LWPOLYLINE
5
742
100
AcDbEntity
8
0
100
AcDbPolyline
90
4
70
1
43
0.0
10
509.5
20
156.5
10
506.5
20
156.5
10
506.5
20
159.49999999999994
10
509.5
20
159.49999999999994
0
LWPOLYLINE
5
743
100
AcDbEntity
8
0
100
AcDbPolyline
90
4
70
1
43
0.0
10
522
20
156.5
10
519
20
156.5
10
519
20
159.49999999999994
10
522
20
159.49999999999994
0
LWPOLYLINE
5
744
100
AcDbEntity
8
0
100
AcDbPolyline
90
4
70
1
43
0.0
10
534.5
20
156.5
10
531.5
20
156.5
10
531.5
20
159.49999999999994
10
534.5
20
159.49999999999994
0
LWPOLYLINE
5
745
100
AcDbEntity
8
0
100
AcDbPolyline
90
4
70
1
43
0.0
10
547
20
156.5
10
544
20
156.5
10
544
20
159.49999999999994
10
547
20
159.49999999999994
0
LWPOLYLINE
5
746
100
AcDbEntity
8
0
100
AcDbPolyline
90
4
70
1
43
0.0
10
22.000000000000036
20
106.49999999999999
10
19
20
106.49999999999999
10
19
20
109.49999999999996
10
22
20
109.49999999999996
0
LWPOLYLINE
5
747
100
AcDbEntity
8
0
100
AcDbPolyline
90
4
70
1
43
0.0
10
34.500000000000036
20
106.49999999999999
10
31.500000000000004
20
106.49999999999999
10
31.500000000000004
20
109.49999999999996
10
34.5
20
109.49999999999996
0
LWPOLYLINE
5
748
100
AcDbEntity
8
0
100
AcDbPolyline
90
4
70
1
43
0.0
10
47.000000000000036
20
106.49999999999999
10
44
20
106.49999999999999
10
44
20
109.49999999999996
10
47
20
109.49999999999996
0
LWPOLYLINE
5
749
100
AcDbEntity
8
0
100
AcDbPolyline
90
4
70
1
43
0.0
10
59.500000000000036
20
106.49999999999999
10
56.5
20
106.49999999999999
10
56.5
20
109.49999999999996
10
59.5
20
109.49999999999996
0
LWPOLYLINE
5
750
100
AcDbEntity
8
0
100
AcDbPolyline
90
4
70
1
43
0.0
10
72.000000000000043
20
106.49999999999999
10
69
20
106.49999999999999
10
69
20
109.49999999999996
10
72
20
109.49999999999996
0
LWPOLYLINE
5
751
100
AcDbEntity
8
0
100
AcDbPolyline
90
4
70
1
43
0.0
10
84.500000000000028
20
106.49999999999999
10
81.5
20
106.49999999999999
10
81.5
20
109.49999999999996
10
84.5
20
109.49999999999996
0
LWPOLYLINE
5
752
100
AcDbEntity
8
0
100
AcDbPolyline
90
4
70
1
43
0.0
10
97.000000000000028
20
106.49999999999999
10
94
20
106.49999999999999
10
94
20
109.49999999999996
10
97
20
109.49999999999996
0
LWPOLYLINE
5
753
100
AcDbEntity
8
0
100
AcDbPolyline
90
4
70
1
43
0.0
10
109.50000000000003
20
106.49999999999999
10
106.5
20
106.49999999999999
10
106.5
20
109.49999999999996
10
109.5
20
109.49999999999996
0
LWPOLYLINE
5
754
100
AcDbEntity
8
0
100
AcDbPolyline
90
4
70
1
43
0.0
10
122.00000000000003
20
106.49999999999999
10
119
20
106.49999999999999
10
119
20
109.49999999999996
10
122
20
109.49999999999996
0
LWPOLYLINE
5
755
100
AcDbEntity
8
0
100
AcDbPolyline
90
4
70
1
43
0.0
10
134.50000000000003
20
106.49999999999999
10
131.5
20
106.49999999999999
10
131.5
20
109.49999999999996
10
134.5
20
109.49999999999996
0
LWPOLYLINE
5
756
100
AcDbEntity
8
0
100
AcDbPolyline
90
4
70
1
43
0.0
10
147.00000000000003
20
106.49999999999999
10
144
20
106.49999999999999
10
144
20
109.49999999999996
10
147
20
109.49999999999996
0
LWPOLYLINE
5
757
100
AcDbEntity
8
0
100
AcDbPolyline
90
4
70
1
43
0.0
10
159.50000000000003
20
106.49999999999999
10
156.5
20
106.49999999999999
10
156.5
20
109.49999999999996
10
159.5
20
109.49999999999996
0
LWPOLYLINE
5
758
100
AcDbEntity
8
0
100
AcDbPolyline
90
4
70
1
43
0.0
10
172.00000000000003
20
106.49999999999999
10
169
20
106.49999999999999
10
169
20
109.49999999999996
10
172
20
109.49999999999996
0
LWPOLYLINE
5
759
100
AcDbEntity
8
0
100
AcDbPolyline
90
4
70
1
43
0.0
10
184.50000000000003
20
106.49999999999999
10
181.5
20
106.49999999999999
10
181.5
20
109.49999999999996
10
184.5
20
109.49999999999996
0
LWPOLYLINE
5
760
100
AcDbEntity
8
0
100
AcDbPolyline
90
4
70
1
43
0.0
10
197.00000000000003
20
106.49999999999999
10
194
20
106.49999999999999
10
194
20
109.49999999999996
10
197
20
109.49999999999996
0
LWPOLYLINE
5
761
100
AcDbEntity
8
0
100
AcDbPolyline
90
4
70
1
43
0.0
10
209.50000000000003
20
106.49999999999999
10
206.5
20
106.49999999999999
10
206.5
20
109.49999999999996
10
209.5
20
109.49999999999996
0
LWPOLYLINE
5
762
100
AcDbEntity
8
0
100
AcDbPolyline
90
4
70
1
43
0.0
10
222.00000000000003
20
106.49999999999999
10
219
20
106.49999999999999
10
219
20
109.49999999999996
10
222
20
109.49999999999996
0
LWPOLYLINE
5
763
100
AcDbEntity
8
0
100
AcDbPolyline
90
4
70
1
43
0.0
10
234.50000000000003
20
106.49999999999999
10
231.5
20
106.49999999999999
10
231.5
20
109.49999999999996
10
234.5
20
109.49999999999996
0
LWPOLYLINE
5
764
100
AcDbEntity
8
0
100
AcDbPolyline
90
4
70
1
43
0.0
10
247.00000000000003
20
106.49999999999999
10
244
20
106.49999999999999
10
244
20
109.49999999999996
10
247
20
109.49999999999996
0
LWPOLYLINE
5
765
100
AcDbEntity
8
0
100
AcDbPolyline
90
4
70
1
43
0.0
10
259.5
20
106.49999999999999
10
256.5
20
106.49999999999999
10
256.5
20
109.49999999999996
10
259.5
20
109.49999999999996
0
LWPOLYLINE
5
766
100
AcDbEntity
8
0
100
AcDbPolyline
90
4
70
1
43
0.0
10
272
20
106.49999999999999
10
269
20
106.49999999999999
10
269
20
109.49999999999996
10
272
20
109.49999999999996
0
LWPOLYLINE
5
767
100
AcDbEntity
8
0
100
AcDbPolyline
90
4
70
1
43
0.0
10
284.5
20
106.49999999999999
10
281.5
20
106.49999999999999
10
281.5
20
109.49999999999996
10
284.5
20
109.49999999999996
0
LWPOLYLINE
5
768
100
AcDbEntity
8
0
100
AcDbPolyline
90
4
70
1
43
0.0
10
297
20
106.49999999999999
10
294
20
106.49999999999999
10
294
20
109.49999999999996
10
297
20
109.49999999999996
0
LWPOLYLINE
5
769
100
AcDbEntity
8
0
100
AcDbPolyline
90
4
70
1
43
0.0
10
309.5
20
106.49999999999999
10
306.5
20
106.49999999999999
10
306.5
20
109.49999999999996
10
309.5
20
109.49999999999996
0
LWPOLYLINE
5
770
100
AcDbEntity
8
0
100
AcDbPolyline
90
4
70
1
43
0.0
10
322
20
106.49999999999999
10
319
20
106.49999999999999
10
319
20
109.49999999999996
10
322
20
109.49999999999996
0
LWPOLYLINE
5
771
100
AcDbEntity
8
0
100
AcDbPolyline
90
4
70
1
43
0.0
10
334.5
20
106.49999999999999
10
331.5
20
106.49999999999999
10
331.5
20
109.49999999999996
10
334.5
20
109.49999999999996
0
LWPOLYLINE
5
772
100
AcDbEntity
8
0
100
AcDbPolyline
90
4
70
1
43
0.0
10
347
20
106.49999999999999
10
344
20
106.49999999999999
10
344
20
109.49999999999996
10
347
20
109.49999999999996
0
LWPOLYLINE
5
773
100
AcDbEntity
8
0
100
AcDbPolyline
90
4
70
1
43
0.0
10
359.5
20
106.49999999999999
10
356.5
20
106.49999999999999
10
356.5
20
109.49999999999996
10
359.5
20
109.49999999999996
0
LWPOLYLINE
5
774
100
AcDbEntity
8
0
100
AcDbPolyline
90
4
70
1
43
0.0
10
372
20
106.49999999999999
10
369
20
106.49999999999999
10
369
20
109.49999999999996
10
372
20
109.49999999999996
0
LWPOLYLINE
5
775
100
AcDbEntity
8
0
100
AcDbPolyline
90
4
70
1
43
0.0
10
384.5
20
106.49999999999999
10
381.5
20
106.49999999999999
10
381.5
20
109.49999999999996
10
384.5
20
109.49999999999996
0
LWPOLYLINE
5
776
100
AcDbEntity
8
0
100
AcDbPolyline
90
4
70
1
43
0.0
10
397
20
106.49999999999999
10
394
20
106.49999999999999
10
394
20
109.49999999999996
10
397
20
109.49999999999996
0
LWPOLYLINE
5
777
100
AcDbEntity
8
0
100
AcDbPolyline
90
4
70
1
43
0.0
10
409.5
20
106.49999999999999
10
406.5
20
106.49999999999999
10
406.5
20
109.49999999999996
10
409.5
20
109.49999999999996
0
LWPOLYLINE
5
778
100
AcDbEntity
8
0
100
AcDbPolyline
90
4
70
1
43
0.0
10
422
20
106.49999999999999
10
419
20
106.49999999999999
10
419
20
109.49999999999996
10
422
20
109.49999999999996
0
LWPOLYLINE
5
779
100
AcDbEntity
8
0
100
AcDbPolyline
90
4
70
1
43
0.0
10
434.5
20
106.49999999999999
10
431.5
20
106.49999999999999
10
431.5
20
109.49999999999996
10
434.5
20
109.49999999999996
0
LWPOLYLINE
5
780
100
AcDbEntity
8
0
100
AcDbPolyline
90
4
70
1
43
0.0
10
447
20
106.49999999999999
10
444
20
106.49999999999999
10
444
20
109.49999999999996
10
447
20
109.49999999999996
0
LWPOLYLINE
5
781
100
AcDbEntity
8
0
100
AcDbPolyline
90
4
70
1
43
0.0
10
459.5
20
106.49999999999999
10
456.5
20
106.49999999999999
10
456.5
20
109.49999999999996
10
459.5
20
109.49999999999996
0
LWPOLYLINE
5
782
100
AcDbEntity
8
0
100
AcDbPolyline
90
4
70
1
43
0.0
10
472
20
106.49999999999999
10
469
20
106.49999999999999
10
469
20
109.49999999999996
10
472
20
109.49999999999996
0
LWPOLYLINE
5
783
100
AcDbEntity
8
0
100
AcDbPolyline
90
4
70
1
43
0.0
10
484.5
20
106.49999999999999
10
481.5
20
106.49999999999999
10
481.5
20
109.49999999999996
10
484.5
20
109.49999999999996
0
LWPOLYLINE
5
784
100
AcDbEntity
8
0
100
AcDbPolyline
90
4
70
1
43
0.0
10
497
20
106.49999999999999
10
494
20
106.49999999999999
10
494
20
109.49999999999996
10
497
20
109.49999999999996
0
LWPOLYLINE
5
785
100
AcDbEntity
8
0
100
AcDbPolyline
90
4
70
1
43
0.0
10
509.5
20
106.49999999999999
10
506.5
20
106.49999999999999
10
506.5
20
109.49999999999996
10
509.5
20
109.49999999999996
0
LWPOLYLINE
5
786
100
AcDbEntity
8
0
100
AcDbPolyline
90
4
70
1
43
0.0
10
522
20
106.49999999999999
10
519
20
106.49999999999999
10
519
20
109.49999999999996
10
522
20
109.49999999999996
0
LWPOLYLINE
5
787
100
AcDbEntity
8
0
100
AcDbPolyline
90
4
70
1
43
0.0
10
534.5
20
106.49999999999999
10
531.5
20
106.49999999999999
10
531.5
20
109.49999999999996
10
534.5
20
109.49999999999996
0
LWPOLYLINE
5
788
100
AcDbEntity
8
0
100
AcDbPolyline
90
4
70
1
43
0.0
10
547
20
106.49999999999999
10
544
20
106.49999999999999
10
544
20
109.49999999999996
10
547
20
109.49999999999996
0
LWPOLYLINE
5
789
100
AcDbEntity
8
0
100
AcDbPolyline
90
4
70
1
43
0.0
10
22.000000000000036
20
56.499999999999986
10
19
20
56.499999999999986
10
19
20
59.499999999999957
10
22
20
59.499999999999957
0
LWPOLYLINE
5
790
100
AcDbEntity
8
0
100
AcDbPolyline
90
4
70
1
43
0.0
10
34.500000000000036
20
56.499999999999986
10
31.500000000000004
20
56.499999999999986
10
31.500000000000004
20
59.499999999999957
10
34.5
20
59.499999999999957
0
LWPOLYLINE
5
791
100
AcDbEntity
8
0
100
AcDbPolyline
90
4
70
1
43
0.0
10
47.000000000000036
20
56.499999999999986
10
44
20
56.499999999999986
10
44
20
59.499999999999957
10
47
20
59.499999999999957
0
LWPOLYLINE
5
792
100
AcDbEntity
8
0
100
AcDbPolyline
90
4
70
1
43
0.0
10
59.500000000000036
20
56.499999999999986
10
56.5
20
56.499999999999986
10
56.5
20
59.499999999999957
10
59.5
20
59.499999999999957
0
LWPOLYLINE
5
793
100
AcDbEntity
8
0
100
AcDbPolyline
90
4
70
1
43
0.0
10
72.000000000000043
20
56.499999999999986
10
69
20
56.499999999999986
10
69
20
59.499999999999957
10
72
20
59.499999999999957
0
LWPOLYLINE
5
794
100
AcDbEntity
8
0
100
AcDbPolyline
90
4
70
1
43
0.0
10
84.500000000000028
20
56.499999999999986
10
81.5
20
56.499999999999986
10
81.5
20
59.499999999999957
10
84.5
20
59.499999999999957
0
LWPOLYLINE
5
795
100
AcDbEntity
8
0
100
AcDbPolyline
90
4
70
1
43
0.0
10
97.000000000000028
20
56.499999999999986
10
94
20
56.499999999999986
10
94
20
59.499999999999957
10
97
20
59.499999999999957
0
LWPOLYLINE
5
796
100
AcDbEntity
8
0
100
AcDbPolyline
90
4
70
1
43
0.0
10
109.50000000000003
20
56.499999999999986
10
106.5
20
56.499999999999986
10
106.5
20
59.499999999999957
10
109.5
20
59.499999999999957
0
LWPOLYLINE
5
797
100
AcDbEntity
8
0
100
AcDbPolyline
90
4
70
1
43
0.0
10
122.00000000000003
20
56.499999999999986
10
119
20
56.499999999999986
10
119
20
59.499999999999957
10
122
20
59.499999999999957
0
LWPOLYLINE
5
798
100
AcDbEntity
8
0
100
AcDbPolyline
90
4
70
1
43
0.0
10
134.50000000000003
20
56.499999999999986
10
131.5
20
56.499999999999986
10
131.5
20
59.499999999999957
10
134.5
20
59.499999999999957
0
LWPOLYLINE
5
799
100
AcDbEntity
8
0
100
AcDbPolyline
90
4
70
1
43
0.0
10
147.00000000000003
20
56.499999999999986
10
144
20
56.499999999999986
10
144
20
59.499999999999957
10
147
20
59.499999999999957
0
LWPOLYLINE
5
800
100
AcDbEntity
8
0
100
AcDbPolyline
90
4
70
1
43
0.0
10
159.50000000000003
20
56.499999999999986
10
156.5
20
56.499999999999986
10
156.5
20
59.499999999999957
10
159.5
20
59.499999999999957
0
LWPOLYLINE
5
801
100
AcDbEntity
8
0
100
AcDbPolyline
90
4
70
1
43
0.0
10
172.00000000000003
20
56.499999999999986
10
169
20
56.499999999999986
10
169
20
59.499999999999957
10
172
20
59.499999999999957
0
LWPOLYLINE
5
802
100
AcDbEntity
8
0
100
AcDbPolyline
90
4
70
1
43
0.0
10
184.50000000000003
20
56.499999999999986
10
181.5
20
56.499999999999986
10
181.5
20
59.499999999999957
10
184.5
20
59.499999999999957
0
LWPOLYLINE
5
803
100
AcDbEntity
8
0
100
AcDbPolyline
90
4
70
1
43
0.0
10
197.00000000000003
20
56.499999999999986
10
194
20
56.499999999999986
10
194
20
59.499999999999957
10
197
20
59.499999999999957
0
LWPOLYLINE
5
804
100
AcDbEntity
8
0
100
AcDbPolyline
90
4
70
1
43
0.0
10
209.50000000000003
20
56.499999999999986
10
206.5
20
56.499999999999986
10
206.5
20
59.499999999999957
10
209.5
20
59.499999999999957
0
LWPOLYLINE
5
805
100
AcDbEntity
8
0
100
AcDbPolyline
90
4
70
1
43
0.0
10
222.00000000000003
20
56.499999999999986
10
219
20
56.499999999999986
10
219
20
59.499999999999957
10
222
20
59.499999999999957
0
LWPOLYLINE
5
806
100
AcDbEntity
8
0
100
AcDbPolyline
90
4
70
1
43
0.0
10
234.50000000000003
20
56.499999999999986
10
231.5
20
56.499999999999986
10
231.5
20
59.499999999999957
10
234.5
20
59.499999999999957
0
LWPOLYLINE
5
807
100
AcDbEntity
8
0
100
AcDbPolyline
90
4
70
1
43
0.0
10
247.00000000000003
20
56.499999999999986
10
244
20
56.499999999999986
10
244
20
59.499999999999957
10
247
20
59.499999999999957
0
LWPOLYLINE
5
808
100
AcDbEntity
8
0
100
AcDbPolyline
90
4
70
1
43
0.0
10
259.5
20
56.499999999999986
10
256.5
20
56.499999999999986
10
256.5
20
59.499999999999957
10
259.5
20
59.499999999999957
0
LWPOLYLINE
5
809
100
AcDbEntity
8
0
100
AcDbPolyline
90
4
70
1
43
0.0
10
272
20
56.499999999999986
10
269
20
56.499999999999986
10
269
20
59.499999999999957
10
272
20
59.499999999999957
0
LWPOLYLINE
5
810
100
AcDbEntity
8
0
100
AcDbPolyline
90
4
70
1
43
0.0
10
284.5
20
56.499999999999986
10
281.5
20
56.499999999999986
10
281.5
20
59.499999999999957
10
284.5
20
59.499999999999957
0
LWPOLYLINE
5
811
100
AcDbEntity
8
0
100
AcDbPolyline
90
4
70
1
43
0.0
10
297
20
56.499999999999986
10
294
20
56.499999999999986
10
294
20
59.499999999999957
10
297
20
59.499999999999957
0
LWPOLYLINE
5
812
100
AcDbEntity
8
0
100
AcDbPolyline
90
4
70
1
43
0.0
10
309.5
20
56.499999999999986
10
306.5
20
56.499999999999986
10
306.5
20
59.499999999999957
10
309.5
20
59.499999999999957
0
LWPOLYLINE
5
813
100
AcDbEntity
8
0
100
AcDbPolyline
90
4
70
1
43
0.0
10
322
20
56.499999999999986
10
319
20
56.499999999999986
10
319
20
59.499999999999957
10
322
20
59.499999999999957
0
LWPOLYLINE
5
814
100
AcDbEntity
8
0
100
AcDbPolyline
90
4
70
1
43
0.0
10
334.5
20
56.499999999999986
10
331.5
20
56.499999999999986
10
331.5
20
59.499999999999957
10
334.5
20
59.499999999999957
0
LWPOLYLINE
5
815
100
AcDbEntity
8
0
100
AcDbPolyline
90
4
70
1
43
0.0
10
347
20
56.499999999999986
10
344
20
56.499999999999986
10
344
20
59.499999999999957
10
347
20
59.499999999999957
0
LWPOLYLINE
5
816
100
AcDbEntity
8
0
100
AcDbPolyline
90
4
70
1
43
0.0
10
359.5
20
56.499999999999986
10
356.5
20
56.499999999999986
10
356.5
20
59.499999999999957
10
359.5
20
59.499999999999957
0
LWPOLYLINE
5
817
100
AcDbEntity
8
0
100
AcDbPolyline
90
4
70
1
43
0.0
10
372
20
56.499999999999986
10
369
20
56.499999999999986
10
369
20
59.499999999999957
10
372
20
59.499999999999957
0
LWPOLYLINE
5
818
100
AcDbEntity
8
0
100
AcDbPolyline
90
4
70
1
43
0.0
10
384.5
20
56.499999999999986
10
381.5
20
56.499999999999986
10
381.5
20
59.499999999999957
10
384.5
20
59.499999999999957
0
LWPOLYLINE
5
819
100
AcDbEntity
8
0
100
AcDbPolyline
90
4
70
1
43
0.0
10
397
20
56.499999999999986
10
394
20
56.499999999999986
10
394
20
59.499999999999957
10
397
20
59.499999999999957
0
LWPOLYLINE
5
820
100
AcDbEntity
8
0
100
AcDbPolyline
90
4
70
1
43
0.0
10
409.5
20
56.499999999999986
10
406.5
20
56.499999999999986
10
406.5
20
59.499999999999957
10
409.5
20
59.499999999999957
0
LWPOLYLINE
5
821
100
AcDbEntity
8
0
100
AcDbPolyline
90
4
70
1
43
0.0
10
422
20
56.499999999999986
10
419
20
56.499999999999986
10
419
20
59.499999999999957
10
422
20
59.499999999999957
0
LWPOLYLINE
5
822
100
AcDbEntity
8
0
100
AcDbPolyline
90
4
70
1
43
0.0
10
434.5
20
56.499999999999986
10
431.5
20
56.499999999999986
10
431.5
20
59.499999999999957
10
434.5
20
59.499999999999957
0
LWPOLYLINE
5
823
100
AcDbEntity
8
0
100
AcDbPolyline
90
4
70
1
43
0.0
10
447
20
56.499999999999986
10
444
20
56.499999999999986
10
444
20
59.499999999999957
10
447
20
59.499999999999957
0
LWPOLYLINE
5
824
100
AcDbEntity
8
0
100
AcDbPolyline
90
4
70
1
43
0.0
10
459.5
20
56.499999999999986
10
456.5
20
56.499999999999986
10
456.5
20
59.499999999999957
10
459.5
20
59.499999999999957
0
LWPOLYLINE
5
825
100
AcDbEntity
8
0
100
AcDbPolyline
90
4
70
1
43
0.0
10
472
20
56.499999999999986
10
469
20
56.499999999999986
10
469
20
59.499999999999957
10
472
20
59.499999999999957
0
LWPOLYLINE
5
826
100
AcDbEntity
8
0
100
AcDbPolyline
90
4
70
1
43
0.0
10
484.5
20
56.499999999999986
10
481.5
20
56.499999999999986
10
481.5
20
59.499999999999957
10
484.5
20
59.499999999999957
0
LWPOLYLINE
5
827
100
AcDbEntity
8
0
100
AcDbPolyline
90
4
70
1
43
0.0
10
497
20
56.499999999999986
10
494
20
56.499999999999986
10
494
20
59.499999999999957
10
497
20
59.499999999999957
0
LWPOLYLINE
5
828
100
AcDbEntity
8
0
100
AcDbPolyline
90
4
70
1
43
0.0
10
509.5
20
56.499999999999986
10
506.5
20
56.499999999999986
10
506.5
20
59.499999999999957
10
509.5
20
59.499999999999957
0
LWPOLYLINE
5
829
100
AcDbEntity
8
0
100
AcDbPolyline
90
4
70
1
43
0.0
10
522
20
56.499999999999986
10
519
20
56.499999999999986
10
519
20
59.499999999999957
10
522
20
59.499999999999957
0
LWPOLYLINE
5
830
100
AcDbEntity
8
0
100
AcDbPolyline
90
4
70
1
43
0.0
10
534.5
20
56.499999999999986
10
531.5
20
56.499999999999986
10
531.5
20
59.499999999999957
10
534.5
20
59.499999999999957
0
LWPOLYLINE
5
831
100
AcDbEntity
8
0
100
AcDbPolyline
90
4
70
1
43
0.0
10
547
20
56.499999999999986
10
544
20
56.499999999999986
10
544
20
59.499999999999957
10
547
20
59.499999999999957
0
LWPOLYLINE
5
832
100
AcDbEntity
8
0
100
AcDbPolyline
90
8
70
1
43
0.0
10
571.38954192478752
20
469.59411594382425
10
583.38954192478741
20
469.59411594382425
10
583.38954192478752
20
484.59411594382425
10
578.88954192478752
20
484.59411594382425
10
578.88954192478752
20
487.59411594382419
10
575.88954192478752
20
487.59411594382419
10
575.88954192478752
20
484.59411594382453
10
571.38954192478752
20
484.59411594382436
0
LWPOLYLINE
5
833
100
AcDbEntity
8
0
100
AcDbPolyline
90
8
70
1
43
0.0
10
588.38954192478752
20
469.59411594382436
10
588.38954192478752
20
484.59411594382425
10
592.88954192478752
20
484.59411594382436
10
592.88954192478752
20
487.59411594382408
10
595.7895419247875
20
487.59411594382436
10
595.7895419247875
20
484.59411594382436
10
600.38954192478752
20
484.59411594382436
10
600.38954192478752
20
469.59411594382436
0
LWPOLYLINE
5
834
100
AcDbEntity
8
0
100
AcDbPolyline
90
8
70
1
43
0.0
10
622.38954192478741
20
469.59411594382425
10
622.38954192478741
20
484.59411594382425
10
626.88954192478741
20
484.59411594382436
10
626.88954192478741
20
487.59411594382436
10
630.3228752581208
20
487.59411594382448
10
630.3228752581208
20
484.59411594382425
10
634.38954192478741
20
484.59411594382425
10
634.38954192478741
20
469.59411594382425
0
LWPOLYLINE
5
835
100
AcDbEntity
8
0
100
AcDbPolyline
90
8
70
1
43
0.0
10
617.38954192478741
20
469.59411594382436
10
617.38954192478752
20
484.59411594382425
10
612.88954192478752
20
484.59411594382425
10
612.88954192478752
20
487.59411594382419
10
609.88954192478752
20
487.59411594382419
10
609.88954192478752
20
484.59411594382425
10
605.38954192478752
20
484.59411594382408
10
605.38954192478752
20
469.59411594382436
0
LWPOLYLINE
5
836
100
AcDbEntity
8
0
100
AcDbPolyline
90
4
70
1
43
0.0
10
639.000009521842
20
485.00000722706318
10
642.00000956654549
20
485.00000722706318
10
642.00000956654549
20
482.0000071823597
10
639.000009521842
20
482.0000071823597
0
ENDSEC
0
SECTION
2
OBJECTS
0
DICTIONARY
5
C
100
AcDbDictionary
3
ACAD_GROUP
350
D
3
ACAD_MLINESTYLE
350
17
0
DICTIONARY
5
D
100
AcDbDictionary
0
DICTIONARY
5
1A
330
C
100
AcDbDictionary
0
DICTIONARY
5
17
100
AcDbDictionary
0
ENDSEC
0
EOF
